ISO-10303-21;
HEADER;
FILE_DESCRIPTION (( 'STEP AP203' ),
    '1' );
FILE_NAME ('PE-047SR_3D.step',
    '2021-05-17T22:24:01',
    ( '' ),
    ( '' ),
    'SwSTEP 2.0',
    'SolidWorks 2020',
    '' );
FILE_SCHEMA (( 'CONFIG_CONTROL_DESIGN' ));
ENDSEC;

DATA;
#1 = PLANE ( 'NONE',  #40 ) ;
#2 = ORIENTED_EDGE ( 'NONE', *, *, #112, .T. ) ;
#3 = PRODUCT_RELATED_PRODUCT_CATEGORY ( 'detail', '', ( #28 ) ) ;
#4 = EDGE_LOOP ( 'NONE', ( #55 ) ) ;
#5 = DIRECTION ( 'NONE',  ( 1.000000000000000000, 0.000000000000000000, 0.000000000000000000 ) ) ;
#6 = FACE_OUTER_BOUND ( 'NONE', #44, .T. ) ;
#7 = LOCAL_TIME ( 15, 24, 1.000000000000000000, #214 ) ;
#8 = CARTESIAN_POINT ( 'NONE',  ( 0.02350000000000000352, 0.000000000000000000, 1.000000000000000000 ) ) ;
#9 = CARTESIAN_POINT ( 'NONE',  ( 0.000000000000000000, 0.000000000000000000, -0.2000000000000000111 ) ) ;
#10 = CALENDAR_DATE ( 2021, 17, 5 ) ;
#11 = PERSON_AND_ORGANIZATION_ROLE ( 'creator' ) ;
#12 = COORDINATED_UNIVERSAL_TIME_OFFSET ( 8, 0, .BEHIND. ) ;
#13 = DIRECTION ( 'NONE',  ( 1.000000000000000000, 0.000000000000000000, 0.000000000000000000 ) ) ;
#14 = ORGANIZATION ( 'UNSPECIFIED', 'UNSPECIFIED', '' ) ;
#15 = CARTESIAN_POINT ( 'NONE',  ( 0.000000000000000000, 0.000000000000000000, -0.1000000000000000056 ) ) ;
#16 = ORIENTED_EDGE ( 'NONE', *, *, #112, .F. ) ;
#17 = DIMENSIONAL_EXPONENTS ( 1.000000000000000000, 0.000000000000000000, 0.000000000000000000, 0.000000000000000000, 0.000000000000000000, 0.000000000000000000, 0.000000000000000000 ) ;
#18 = FACE_OUTER_BOUND ( 'NONE', #116, .T. ) ;
#19 = CARTESIAN_POINT ( 'NONE',  ( 0.000000000000000000, 0.000000000000000000, -0.1000000000000000056 ) ) ;
#20 = AXIS2_PLACEMENT_3D ( 'NONE', #15, #113, #30 ) ;
#21 = DIRECTION ( 'NONE',  ( -1.000000000000000000, 0.000000000000000000, 0.000000000000000000 ) ) ;
#22 = DIRECTION ( 'NONE',  ( -1.000000000000000000, 0.000000000000000000, 0.000000000000000000 ) ) ;
#23 = AXIS2_PLACEMENT_3D ( 'NONE', #147, #201, #168 ) ;
#24 = APPLICATION_CONTEXT ( 'configuration controlled 3d designs of mechanical parts and assemblies' ) ;
#25 = DIRECTION ( 'NONE',  ( 0.000000000000000000, 0.000000000000000000, 1.000000000000000000 ) ) ;
#26 = SECURITY_CLASSIFICATION_LEVEL ( 'unclassified' ) ;
#27 = ADVANCED_FACE ( 'NONE', ( #130, #58 ), #186, .F. ) ;
#28 = PRODUCT ( 'PE-047SR_3D', 'PE-047SR_3D', '', ( #160 ) ) ;
#29 = PRODUCT_DEFINITION_SHAPE ( 'NONE', 'NONE',  #141 ) ;
#30 = DIRECTION ( 'NONE',  ( -1.000000000000000000, 0.000000000000000000, -0.000000000000000000 ) ) ;
#31 = LOCAL_TIME ( 15, 24, 1.000000000000000000, #111 ) ;
#32 = VERTEX_POINT ( 'NONE', #136 ) ;
#33 = DIRECTION ( 'NONE',  ( -0.000000000000000000, -0.000000000000000000, 1.000000000000000000 ) ) ;
#34 = APPROVAL ( #91, 'UNSPECIFIED' ) ;
#35 = APPROVAL_DATE_TIME ( #38, #49 ) ;
#36 = DIRECTION ( 'NONE',  ( 1.000000000000000000, 0.000000000000000000, 0.000000000000000000 ) ) ;
#37 = AXIS2_PLACEMENT_3D ( 'NONE', #123, #33, #5 ) ;
#38 = DATE_AND_TIME ( #10, #31 ) ;
#39 = ADVANCED_FACE ( 'NONE', ( #206 ), #1, .T. ) ;
#40 = AXIS2_PLACEMENT_3D ( 'NONE', #115, #167, #117 ) ;
#41 = AXIS2_PLACEMENT_3D ( 'NONE', #74, #146, #87 ) ;
#42 = DIRECTION ( 'NONE',  ( 1.000000000000000000, 0.000000000000000000, -0.000000000000000000 ) ) ;
#43 = EDGE_LOOP ( 'NONE', ( #56 ) ) ;
#44 = EDGE_LOOP ( 'NONE', ( #149 ) ) ;
#45 = APPROVAL_PERSON_ORGANIZATION ( #144, #125, #164 ) ;
#46 = VERTEX_POINT ( 'NONE', #8 ) ;
#47 = CARTESIAN_POINT ( 'NONE',  ( 0.000000000000000000, 0.000000000000000000, -0.2000000000000000111 ) ) ;
#48 = CYLINDRICAL_SURFACE ( 'NONE', #173, 0.005499999999999999681 ) ;
#49 = APPROVAL ( #140, 'UNSPECIFIED' ) ;
#50 = APPLICATION_PROTOCOL_DEFINITION ( 'international standard', 'config_control_design', 1994, #213 ) ;
#51 = PERSON_AND_ORGANIZATION ( #179, #14 ) ;
#52 = PERSON_AND_ORGANIZATION ( #179, #14 ) ;
#53 = PRODUCT_DEFINITION_FORMATION_WITH_SPECIFIED_SOURCE ( 'ANY', '', #28, .NOT_KNOWN. ) ;
#54 = EDGE_LOOP ( 'NONE', ( #129 ) ) ;
#55 = ORIENTED_EDGE ( 'NONE', *, *, #133, .T. ) ;
#56 = ORIENTED_EDGE ( 'NONE', *, *, #138, .T. ) ;
#57 = CIRCLE ( 'NONE', #41, 0.02350000000000000352 ) ;
#58 = FACE_OUTER_BOUND ( 'NONE', #169, .T. ) ;
#59 = FACE_OUTER_BOUND ( 'NONE', #203, .T. ) ;
#60 = UNCERTAINTY_MEASURE_WITH_UNIT (LENGTH_MEASURE( 1.000000000000000082E-05 ), #63, 'distance_accuracy_value', 'NONE');
#61 = AXIS2_PLACEMENT_3D ( 'NONE', #189, #134, #172 ) ;
#62 = CARTESIAN_POINT ( 'NONE',  ( -0.005499999999999999681, 0.000000000000000000, -0.2000000000000000111 ) ) ;
#63 =( CONVERSION_BASED_UNIT ( 'INCH', #208 ) LENGTH_UNIT ( ) NAMED_UNIT ( #17 ) );
#64 = DIRECTION ( 'NONE',  ( -1.000000000000000000, 0.000000000000000000, 0.000000000000000000 ) ) ;
#65 = CC_DESIGN_DATE_AND_TIME_ASSIGNMENT ( #217, #197, ( #135 ) ) ;
#66 = FACE_OUTER_BOUND ( 'NONE', #43, .T. ) ;
#67 = AXIS2_PLACEMENT_3D ( 'NONE', #102, #193, #119 ) ;
#68 = DATE_TIME_ROLE ( 'creation_date' ) ;
#69 = PERSON_AND_ORGANIZATION ( #179, #14 ) ;
#70 = DATE_AND_TIME ( #73, #75 ) ;
#71 = ADVANCED_FACE ( 'NONE', ( #185, #76 ), #187, .T. ) ;
#72 = APPROVAL_ROLE ( '' ) ;
#73 = CALENDAR_DATE ( 2021, 17, 5 ) ;
#74 = CARTESIAN_POINT ( 'NONE',  ( 0.000000000000000000, 0.000000000000000000, 0.000000000000000000 ) ) ;
#75 = LOCAL_TIME ( 15, 24, 1.000000000000000000, #12 ) ;
#76 = FACE_OUTER_BOUND ( 'NONE', #205, .T. ) ;
#77 = EDGE_LOOP ( 'NONE', ( #184 ) ) ;
#78 = CIRCLE ( 'NONE', #84, 0.005499999999999999681 ) ;
#79 = CC_DESIGN_DATE_AND_TIME_ASSIGNMENT ( #180, #68, ( #141 ) ) ;
#80 = ORIENTED_EDGE ( 'NONE', *, *, #211, .T. ) ;
#81 = DIRECTION ( 'NONE',  ( 0.000000000000000000, 0.000000000000000000, -1.000000000000000000 ) ) ;
#82 = PLANE ( 'NONE',  #67 ) ;
#83 = DESIGN_CONTEXT ( 'detailed design', #213, 'design' ) ;
#84 = AXIS2_PLACEMENT_3D ( 'NONE', #47, #85, #64 ) ;
#85 = DIRECTION ( 'NONE',  ( 0.000000000000000000, 0.000000000000000000, -1.000000000000000000 ) ) ;
#86 = MANIFOLD_SOLID_BREP ( 'Boss-Extrude3', #118 ) ;
#87 = DIRECTION ( 'NONE',  ( 1.000000000000000000, 0.000000000000000000, 0.000000000000000000 ) ) ;
#88 = PERSON_AND_ORGANIZATION ( #179, #14 ) ;
#89 = CC_DESIGN_APPROVAL ( #34, ( #53 ) ) ;
#90 = CARTESIAN_POINT ( 'NONE',  ( 0.000000000000000000, 0.000000000000000000, 0.000000000000000000 ) ) ;
#91 = APPROVAL_STATUS ( 'not_yet_approved' ) ;
#92 = APPROVAL_ROLE ( '' ) ;
#93 = CC_DESIGN_PERSON_AND_ORGANIZATION_ASSIGNMENT ( #52, #178, ( #28 ) ) ;
#94 = CARTESIAN_POINT ( 'NONE',  ( 0.000000000000000000, 0.000000000000000000, 1.000000000000000000 ) ) ;
#95 = ORIENTED_EDGE ( 'NONE', *, *, #148, .T. ) ;
#96 =( GEOMETRIC_REPRESENTATION_CONTEXT ( 3 ) GLOBAL_UNCERTAINTY_ASSIGNED_CONTEXT ( ( #60 ) ) GLOBAL_UNIT_ASSIGNED_CONTEXT ( ( #63, #121, #174 ) ) REPRESENTATION_CONTEXT ( 'NONE', 'WORKASPACE' ) );
#97 = EDGE_LOOP ( 'NONE', ( #150 ) ) ;
#98 = ORIENTED_EDGE ( 'NONE', *, *, #138, .F. ) ;
#99 = CIRCLE ( 'NONE', #61, 0.01850000000000000255 ) ;
#100 = CARTESIAN_POINT ( 'NONE',  ( -0.01850000000000000255, 0.000000000000000000, 0.000000000000000000 ) ) ;
#101 = FACE_OUTER_BOUND ( 'NONE', #200, .T. ) ;
#102 = CARTESIAN_POINT ( 'NONE',  ( 0.000000000000000000, 0.000000000000000000, -0.2000000000000000111 ) ) ;
#103 = VERTEX_POINT ( 'NONE', #100 ) ;
#104 = DIRECTION ( 'NONE',  ( -0.000000000000000000, -0.000000000000000000, -1.000000000000000000 ) ) ;
#105 = COORDINATED_UNIVERSAL_TIME_OFFSET ( 8, 0, .BEHIND. ) ;
#106 = APPROVAL_STATUS ( 'not_yet_approved' ) ;
#107 = CIRCLE ( 'NONE', #151, 0.02350000000000000352 ) ;
#108 = CC_DESIGN_PERSON_AND_ORGANIZATION_ASSIGNMENT ( #110, #162, ( #53 ) ) ;
#109 = CALENDAR_DATE ( 2021, 17, 5 ) ;
#110 = PERSON_AND_ORGANIZATION ( #179, #14 ) ;
#111 = COORDINATED_UNIVERSAL_TIME_OFFSET ( 8, 0, .BEHIND. ) ;
#112 = EDGE_CURVE ( 'NONE', #209, #209, #199, .T. ) ;
#113 = DIRECTION ( 'NONE',  ( 0.000000000000000000, 0.000000000000000000, -1.000000000000000000 ) ) ;
#114 = ORIENTED_EDGE ( 'NONE', *, *, #148, .F. ) ;
#115 = CARTESIAN_POINT ( 'NONE',  ( 0.000000000000000000, 0.000000000000000000, 1.000000000000000000 ) ) ;
#116 = EDGE_LOOP ( 'NONE', ( #95 ) ) ;
#117 = DIRECTION ( 'NONE',  ( 1.000000000000000000, 0.000000000000000000, -0.000000000000000000 ) ) ;
#118 = CLOSED_SHELL ( 'NONE', ( #152, #39, #27, #182, #71, #176, #194 ) ) ;
#119 = DIRECTION ( 'NONE',  ( -1.000000000000000000, 0.000000000000000000, -0.000000000000000000 ) ) ;
#120 = FACE_OUTER_BOUND ( 'NONE', #97, .T. ) ;
#121 =( NAMED_UNIT ( * ) PLANE_ANGLE_UNIT ( ) SI_UNIT ( $, .RADIAN. ) );
#122 = AXIS2_PLACEMENT_3D ( 'NONE', #171, #104, #21 ) ;
#123 = CARTESIAN_POINT ( 'NONE',  ( 0.000000000000000000, 0.000000000000000000, -0.1000000000000000056 ) ) ;
#124 = CALENDAR_DATE ( 2021, 17, 5 ) ;
#125 = APPROVAL ( #106, 'UNSPECIFIED' ) ;
#126 = APPROVAL_DATE_TIME ( #70, #125 ) ;
#127 = DATE_AND_TIME ( #109, #7 ) ;
#128 = APPROVAL_PERSON_ORGANIZATION ( #69, #49, #72 ) ;
#129 = ORIENTED_EDGE ( 'NONE', *, *, #211, .F. ) ;
#130 = FACE_BOUND ( 'NONE', #77, .T. ) ;
#131 = EDGE_LOOP ( 'NONE', ( #80 ) ) ;
#132 = DIRECTION ( 'NONE',  ( 0.000000000000000000, 0.000000000000000000, 1.000000000000000000 ) ) ;
#133 = EDGE_CURVE ( 'NONE', #46, #46, #107, .T. ) ;
#134 = DIRECTION ( 'NONE',  ( 0.000000000000000000, 0.000000000000000000, -1.000000000000000000 ) ) ;
#135 = SECURITY_CLASSIFICATION ( '', '', #26 ) ;
#136 = CARTESIAN_POINT ( 'NONE',  ( -0.005499999999999999681, 0.000000000000000000, -0.1000000000000000056 ) ) ;
#137 = CYLINDRICAL_SURFACE ( 'NONE', #122, 0.02350000000000000352 ) ;
#138 = EDGE_CURVE ( 'NONE', #155, #155, #57, .T. ) ;
#139 = CARTESIAN_POINT ( 'NONE',  ( -0.01850000000000000255, 0.000000000000000000, -0.1000000000000000056 ) ) ;
#140 = APPROVAL_STATUS ( 'not_yet_approved' ) ;
#141 = PRODUCT_DEFINITION ( 'UNKNOWN', '', #53, #83 ) ;
#142 = COORDINATED_UNIVERSAL_TIME_OFFSET ( 8, 0, .BEHIND. ) ;
#143 = PERSON_AND_ORGANIZATION_ROLE ( 'design_supplier' ) ;
#144 = PERSON_AND_ORGANIZATION ( #179, #14 ) ;
#145 = LOCAL_TIME ( 15, 24, 1.000000000000000000, #142 ) ;
#146 = DIRECTION ( 'NONE',  ( 0.000000000000000000, 0.000000000000000000, 1.000000000000000000 ) ) ;
#147 = CARTESIAN_POINT ( 'NONE',  ( 0.000000000000000000, 0.000000000000000000, -0.1000000000000000056 ) ) ;
#148 = EDGE_CURVE ( 'NONE', #158, #158, #78, .T. ) ;
#149 = ORIENTED_EDGE ( 'NONE', *, *, #133, .F. ) ;
#150 = ORIENTED_EDGE ( 'NONE', *, *, #204, .T. ) ;
#151 = AXIS2_PLACEMENT_3D ( 'NONE', #94, #165, #13 ) ;
#152 = ADVANCED_FACE ( 'NONE', ( #6, #66 ), #137, .T. ) ;
#153 = CARTESIAN_POINT ( 'NONE',  ( 0.000000000000000000, 0.000000000000000000, 0.000000000000000000 ) ) ;
#154 = APPLICATION_PROTOCOL_DEFINITION ( 'international standard', 'config_control_design', 1994, #24 ) ;
#155 = VERTEX_POINT ( 'NONE', #210 ) ;
#156 = CC_DESIGN_SECURITY_CLASSIFICATION ( #135, ( #53 ) ) ;
#157 = DIRECTION ( 'NONE',  ( 1.000000000000000000, 0.000000000000000000, 0.000000000000000000 ) ) ;
#158 = VERTEX_POINT ( 'NONE', #62 ) ;
#159 = CC_DESIGN_APPROVAL ( #49, ( #141 ) ) ;
#160 = MECHANICAL_CONTEXT ( 'NONE', #24, 'mechanical' ) ;
#161 = APPROVAL_DATE_TIME ( #127, #34 ) ;
#162 = PERSON_AND_ORGANIZATION_ROLE ( 'creator' ) ;
#163 = AXIS2_PLACEMENT_3D ( 'NONE', #153, #132, #42 ) ;
#164 = APPROVAL_ROLE ( '' ) ;
#165 = DIRECTION ( 'NONE',  ( 0.000000000000000000, 0.000000000000000000, 1.000000000000000000 ) ) ;
#166 = CC_DESIGN_APPROVAL ( #125, ( #135 ) ) ;
#167 = DIRECTION ( 'NONE',  ( 0.000000000000000000, 0.000000000000000000, 1.000000000000000000 ) ) ;
#168 = DIRECTION ( 'NONE',  ( -1.000000000000000000, 0.000000000000000000, 0.000000000000000000 ) ) ;
#169 = EDGE_LOOP ( 'NONE', ( #98 ) ) ;
#170 =( LENGTH_UNIT ( ) NAMED_UNIT ( * ) SI_UNIT ( $, .METRE. ) );
#171 = CARTESIAN_POINT ( 'NONE',  ( 0.000000000000000000, 0.000000000000000000, 1.000000000000000000 ) ) ;
#172 = DIRECTION ( 'NONE',  ( -1.000000000000000000, 0.000000000000000000, 0.000000000000000000 ) ) ;
#173 = AXIS2_PLACEMENT_3D ( 'NONE', #9, #175, #157 ) ;
#174 =( NAMED_UNIT ( * ) SI_UNIT ( $, .STERADIAN. ) SOLID_ANGLE_UNIT ( ) );
#175 = DIRECTION ( 'NONE',  ( -0.000000000000000000, -0.000000000000000000, 1.000000000000000000 ) ) ;
#176 = ADVANCED_FACE ( 'NONE', ( #101, #192 ), #48, .T. ) ;
#177 = AXIS2_PLACEMENT_3D ( 'NONE', #90, #25, #36 ) ;
#178 = PERSON_AND_ORGANIZATION_ROLE ( 'design_owner' ) ;
#179 = PERSON ( 'UNSPECIFIED', 'UNSPECIFIED', 'UNSPECIFIED', ('UNSPECIFIED'), ('UNSPECIFIED'), ('UNSPECIFIED') ) ;
#180 = DATE_AND_TIME ( #124, #196 ) ;
#181 = PERSON_AND_ORGANIZATION ( #179, #14 ) ;
#182 = ADVANCED_FACE ( 'NONE', ( #59, #120 ), #191, .T. ) ;
#183 = CIRCLE ( 'NONE', #216, 0.005499999999999999681 ) ;
#184 = ORIENTED_EDGE ( 'NONE', *, *, #204, .F. ) ;
#185 = FACE_BOUND ( 'NONE', #54, .T. ) ;
#186 = PLANE ( 'NONE',  #163 ) ;
#187 = PLANE ( 'NONE',  #20 ) ;
#188 = APPROVAL_PERSON_ORGANIZATION ( #212, #34, #92 ) ;
#189 = CARTESIAN_POINT ( 'NONE',  ( 0.000000000000000000, 0.000000000000000000, 0.000000000000000000 ) ) ;
#190 = CC_DESIGN_PERSON_AND_ORGANIZATION_ASSIGNMENT ( #88, #11, ( #141 ) ) ;
#191 = CYLINDRICAL_SURFACE ( 'NONE', #37, 0.01850000000000000255 ) ;
#192 = FACE_OUTER_BOUND ( 'NONE', #131, .T. ) ;
#193 = DIRECTION ( 'NONE',  ( 0.000000000000000000, 0.000000000000000000, -1.000000000000000000 ) ) ;
#194 = ADVANCED_FACE ( 'NONE', ( #18 ), #82, .T. ) ;
#195 = CALENDAR_DATE ( 2021, 17, 5 ) ;
#196 = LOCAL_TIME ( 15, 24, 1.000000000000000000, #105 ) ;
#197 = DATE_TIME_ROLE ( 'classification_date' ) ;
#198 = PERSON_AND_ORGANIZATION_ROLE ( 'classification_officer' ) ;
#199 = CIRCLE ( 'NONE', #23, 0.01850000000000000255 ) ;
#200 = EDGE_LOOP ( 'NONE', ( #114 ) ) ;
#201 = DIRECTION ( 'NONE',  ( 0.000000000000000000, 0.000000000000000000, -1.000000000000000000 ) ) ;
#202 = ADVANCED_BREP_SHAPE_REPRESENTATION ( 'PE-047SR_3D', ( #86, #177 ), #96 ) ;
#203 = EDGE_LOOP ( 'NONE', ( #16 ) ) ;
#204 = EDGE_CURVE ( 'NONE', #103, #103, #99, .T. ) ;
#205 = EDGE_LOOP ( 'NONE', ( #2 ) ) ;
#206 = FACE_OUTER_BOUND ( 'NONE', #4, .T. ) ;
#207 = CC_DESIGN_PERSON_AND_ORGANIZATION_ASSIGNMENT ( #181, #143, ( #53 ) ) ;
#208 = LENGTH_MEASURE_WITH_UNIT ( LENGTH_MEASURE( 0.02539999999999999897 ), #170 );
#209 = VERTEX_POINT ( 'NONE', #139 ) ;
#210 = CARTESIAN_POINT ( 'NONE',  ( 0.02350000000000000352, 0.000000000000000000, 0.000000000000000000 ) ) ;
#211 = EDGE_CURVE ( 'NONE', #32, #32, #183, .T. ) ;
#212 = PERSON_AND_ORGANIZATION ( #179, #14 ) ;
#213 = APPLICATION_CONTEXT ( 'configuration controlled 3d designs of mechanical parts and assemblies' ) ;
#214 = COORDINATED_UNIVERSAL_TIME_OFFSET ( 8, 0, .BEHIND. ) ;
#215 = CC_DESIGN_PERSON_AND_ORGANIZATION_ASSIGNMENT ( #51, #198, ( #135 ) ) ;
#216 = AXIS2_PLACEMENT_3D ( 'NONE', #19, #81, #22 ) ;
#217 = DATE_AND_TIME ( #195, #145 ) ;
#218 = SHAPE_DEFINITION_REPRESENTATION ( #29, #202 ) ;
ENDSEC;
END-ISO-10303-21;
