ISO-10303-21;
HEADER;
FILE_DESCRIPTION (( 'STEP AP203' ),
    '1' );
FILE_NAME ('PE1001-2_3D.step',
    '2020-06-10T20:35:08',
    ( '' ),
    ( '' ),
    'SwSTEP 2.0',
    'SolidWorks 2018',
    '' );
FILE_SCHEMA (( 'CONFIG_CONTROL_DESIGN' ));
ENDSEC;

DATA;
#1 = DIRECTION ( 'NONE',  ( 0.0000000000000000000, 0.0000000000000000000, 1.000000000000000000 ) ) ;
#2 = DATE_AND_TIME ( #270, #12 ) ;
#3 = CARTESIAN_POINT ( 'NONE',  ( 0.07296850393700790582, 0.0000000000000000000, 0.007499999999999999722 ) ) ;
#4 = AXIS2_PLACEMENT_3D ( 'NONE', #143, #27, #66 ) ;
#5 = DIRECTION ( 'NONE',  ( -1.000000000000000000, 0.0000000000000000000, 0.0000000000000000000 ) ) ;
#6 =( NAMED_UNIT ( * ) SI_UNIT ( $, .STERADIAN. ) SOLID_ANGLE_UNIT ( ) );
#7 = DATE_TIME_ROLE ( 'classification_date' ) ;
#8 =( LENGTH_UNIT ( ) NAMED_UNIT ( * ) SI_UNIT ( $, .METRE. ) );
#9 = APPROVAL_STATUS ( 'not_yet_approved' ) ;
#10 = EDGE_CURVE ( 'NONE', #206, #206, #24, .T. ) ;
#11 = ORIENTED_EDGE ( 'NONE', *, *, #154, .F. ) ;
#12 = LOCAL_TIME ( 13, 35, 8.000000000000000000, #293 ) ;
#13 = PERSON_AND_ORGANIZATION ( #228, #79 ) ;
#14 = AXIS2_PLACEMENT_3D ( 'NONE', #19, #291, #134 ) ;
#15 = PLANE ( 'NONE',  #72 ) ;
#16 = ADVANCED_FACE ( 'NONE', ( #100, #166 ), #15, .F. ) ;
#17 = DIRECTION ( 'NONE',  ( 0.0000000000000000000, 0.0000000000000000000, -1.000000000000000000 ) ) ;
#18 = ORIENTED_EDGE ( 'NONE', *, *, #88, .F. ) ;
#19 = CARTESIAN_POINT ( 'NONE',  ( 0.1339606299212598717, 0.0000000000000000000, 0.0000000000000000000 ) ) ;
#20 = LOCAL_TIME ( 13, 35, 8.000000000000000000, #119 ) ;
#21 = VERTEX_POINT ( 'NONE', #208 ) ;
#22 = DIRECTION ( 'NONE',  ( 0.0000000000000000000, 0.0000000000000000000, 1.000000000000000000 ) ) ;
#23 = PLANE ( 'NONE',  #137 ) ;
#24 = CIRCLE ( 'NONE', #14, 0.007499999999999999722 ) ;
#25 = ADVANCED_BREP_SHAPE_REPRESENTATION ( 'PE1001-2_3D', ( #162, #77 ), #297 ) ;
#26 = ADVANCED_FACE ( 'NONE', ( #74, #251 ), #60, .T. ) ;
#27 = DIRECTION ( 'NONE',  ( 1.000000000000000000, -0.0000000000000000000, -0.0000000000000000000 ) ) ;
#28 = PERSON_AND_ORGANIZATION ( #228, #79 ) ;
#29 = AXIS2_PLACEMENT_3D ( 'NONE', #245, #111, #272 ) ;
#30 = DIRECTION ( 'NONE',  ( -1.000000000000000000, -0.0000000000000000000, -0.0000000000000000000 ) ) ;
#31 = EDGE_LOOP ( 'NONE', ( #286 ) ) ;
#32 = AXIS2_PLACEMENT_3D ( 'NONE', #160, #158, #22 ) ;
#33 = FACE_OUTER_BOUND ( 'NONE', #186, .T. ) ;
#34 = CYLINDRICAL_SURFACE ( 'NONE', #4, 0.04500000000000000527 ) ;
#35 = EDGE_LOOP ( 'NONE', ( #212 ) ) ;
#36 = DIRECTION ( 'NONE',  ( 0.0000000000000000000, 0.0000000000000000000, 1.000000000000000000 ) ) ;
#37 = CC_DESIGN_APPROVAL ( #210, ( #199 ) ) ;
#38 = DATE_AND_TIME ( #75, #55 ) ;
#39 = FACE_OUTER_BOUND ( 'NONE', #142, .T. ) ;
#40 = AXIS2_PLACEMENT_3D ( 'NONE', #161, #281, #48 ) ;
#41 = PLANE ( 'NONE',  #44 ) ;
#42 = DIRECTION ( 'NONE',  ( -1.000000000000000000, 0.0000000000000000000, -0.0000000000000000000 ) ) ;
#43 = FACE_OUTER_BOUND ( 'NONE', #280, .T. ) ;
#44 = AXIS2_PLACEMENT_3D ( 'NONE', #221, #90, #47 ) ;
#45 = ORIENTED_EDGE ( 'NONE', *, *, #156, .T. ) ;
#46 = CARTESIAN_POINT ( 'NONE',  ( 0.1339606299212598717, 0.0000000000000000000, -0.007499999999999999722 ) ) ;
#47 = DIRECTION ( 'NONE',  ( -0.0000000000000000000, 0.0000000000000000000, 1.000000000000000000 ) ) ;
#48 = DIRECTION ( 'NONE',  ( 0.0000000000000000000, 0.0000000000000000000, 1.000000000000000000 ) ) ;
#49 = LOCAL_TIME ( 13, 35, 8.000000000000000000, #289 ) ;
#50 = FACE_OUTER_BOUND ( 'NONE', #290, .T. ) ;
#51 = APPLICATION_PROTOCOL_DEFINITION ( 'international standard', 'config_control_design', 1994, #103 ) ;
#52 = ORIENTED_EDGE ( 'NONE', *, *, #198, .T. ) ;
#53 = PERSON_AND_ORGANIZATION_ROLE ( 'design_supplier' ) ;
#54 = AXIS2_PLACEMENT_3D ( 'NONE', #121, #207, #70 ) ;
#55 = LOCAL_TIME ( 13, 35, 8.000000000000000000, #91 ) ;
#56 = VERTEX_POINT ( 'NONE', #3 ) ;
#57 = EDGE_LOOP ( 'NONE', ( #117 ) ) ;
#58 = CARTESIAN_POINT ( 'NONE',  ( 0.0000000000000000000, 0.0000000000000000000, 0.0000000000000000000 ) ) ;
#59 = ADVANCED_FACE ( 'NONE', ( #135, #96 ), #246, .F. ) ;
#60 = PLANE ( 'NONE',  #262 ) ;
#61 = DIRECTION ( 'NONE',  ( 0.0000000000000000000, 0.0000000000000000000, -1.000000000000000000 ) ) ;
#62 = CARTESIAN_POINT ( 'NONE',  ( 0.07296850393700790582, 0.0000000000000000000, 0.0000000000000000000 ) ) ;
#63 = APPROVAL_DATE_TIME ( #192, #210 ) ;
#64 = VERTEX_POINT ( 'NONE', #68 ) ;
#65 = AXIS2_PLACEMENT_3D ( 'NONE', #277, #147, #69 ) ;
#66 = DIRECTION ( 'NONE',  ( 0.0000000000000000000, 0.0000000000000000000, -1.000000000000000000 ) ) ;
#67 = ORIENTED_EDGE ( 'NONE', *, *, #130, .T. ) ;
#68 = CARTESIAN_POINT ( 'NONE',  ( 0.3149606299212598381, 0.0000000000000000000, 0.007499999999999999722 ) ) ;
#69 = DIRECTION ( 'NONE',  ( 0.0000000000000000000, 0.0000000000000000000, 1.000000000000000000 ) ) ;
#70 = DIRECTION ( 'NONE',  ( 0.0000000000000000000, 0.0000000000000000000, 1.000000000000000000 ) ) ;
#71 = CARTESIAN_POINT ( 'NONE',  ( 0.07296850393700790582, 0.0000000000000000000, 0.04500000000000000527 ) ) ;
#72 = AXIS2_PLACEMENT_3D ( 'NONE', #223, #85, #61 ) ;
#73 = EDGE_LOOP ( 'NONE', ( #82 ) ) ;
#74 = FACE_BOUND ( 'NONE', #203, .T. ) ;
#75 = CALENDAR_DATE ( 2020, 10, 6 ) ;
#76 = APPROVAL ( #214, 'UNSPECIFIED' ) ;
#77 = AXIS2_PLACEMENT_3D ( 'NONE', #122, #284, #261 ) ;
#78 = ORIENTED_EDGE ( 'NONE', *, *, #187, .F. ) ;
#79 = ORGANIZATION ( 'UNSPECIFIED', 'UNSPECIFIED', '' ) ;
#80 = PLANE ( 'NONE',  #182 ) ;
#81 = ADVANCED_FACE ( 'NONE', ( #222, #105 ), #80, .T. ) ;
#82 = ORIENTED_EDGE ( 'NONE', *, *, #201, .T. ) ;
#83 = FACE_OUTER_BOUND ( 'NONE', #31, .T. ) ;
#84 = PLANE ( 'NONE',  #104 ) ;
#85 = DIRECTION ( 'NONE',  ( 1.000000000000000000, 0.0000000000000000000, 0.0000000000000000000 ) ) ;
#86 = CYLINDRICAL_SURFACE ( 'NONE', #65, 0.007500000000000001457 ) ;
#87 = ADVANCED_FACE ( 'NONE', ( #98 ), #84, .F. ) ;
#88 = EDGE_CURVE ( 'NONE', #271, #271, #294, .T. ) ;
#89 = ORIENTED_EDGE ( 'NONE', *, *, #10, .T. ) ;
#90 = DIRECTION ( 'NONE',  ( -1.000000000000000000, 0.0000000000000000000, -0.0000000000000000000 ) ) ;
#91 = COORDINATED_UNIVERSAL_TIME_OFFSET ( 8, 0, .BEHIND. ) ;
#92 = CYLINDRICAL_SURFACE ( 'NONE', #172, 0.007499999999999999722 ) ;
#93 = CARTESIAN_POINT ( 'NONE',  ( 0.07196850393700790494, 0.0000000000000000000, 0.0000000000000000000 ) ) ;
#94 = CC_DESIGN_PERSON_AND_ORGANIZATION_ASSIGNMENT ( #213, #238, ( #199 ) ) ;
#95 = CARTESIAN_POINT ( 'NONE',  ( 0.1339606299212598717, 0.0000000000000000000, -0.04500000000000000527 ) ) ;
#96 = FACE_OUTER_BOUND ( 'NONE', #171, .T. ) ;
#97 = AXIS2_PLACEMENT_3D ( 'NONE', #58, #217, #110 ) ;
#98 = FACE_OUTER_BOUND ( 'NONE', #141, .T. ) ;
#99 = PERSON_AND_ORGANIZATION_ROLE ( 'creator' ) ;
#100 = FACE_BOUND ( 'NONE', #57, .T. ) ;
#101 = ORIENTED_EDGE ( 'NONE', *, *, #201, .F. ) ;
#102 = FACE_OUTER_BOUND ( 'NONE', #129, .T. ) ;
#103 = APPLICATION_CONTEXT ( 'configuration controlled 3d designs of mechanical parts and assemblies' ) ;
#104 = AXIS2_PLACEMENT_3D ( 'NONE', #132, #269, #220 ) ;
#105 = FACE_OUTER_BOUND ( 'NONE', #267, .T. ) ;
#106 = VERTEX_POINT ( 'NONE', #189 ) ;
#107 = SECURITY_CLASSIFICATION ( '', '', #176 ) ;
#108 = ORIENTED_EDGE ( 'NONE', *, *, #187, .T. ) ;
#109 = ORIENTED_EDGE ( 'NONE', *, *, #88, .T. ) ;
#110 = DIRECTION ( 'NONE',  ( 0.0000000000000000000, 0.0000000000000000000, 1.000000000000000000 ) ) ;
#111 = DIRECTION ( 'NONE',  ( 1.000000000000000000, 0.0000000000000000000, 0.0000000000000000000 ) ) ;
#112 = ORIENTED_EDGE ( 'NONE', *, *, #154, .T. ) ;
#113 = DIRECTION ( 'NONE',  ( 0.0000000000000000000, 0.0000000000000000000, 1.000000000000000000 ) ) ;
#114 = CALENDAR_DATE ( 2020, 10, 6 ) ;
#115 = FACE_OUTER_BOUND ( 'NONE', #260, .T. ) ;
#116 = CC_DESIGN_PERSON_AND_ORGANIZATION_ASSIGNMENT ( #263, #236, ( #163 ) ) ;
#117 = ORIENTED_EDGE ( 'NONE', *, *, #145, .F. ) ;
#118 = ADVANCED_FACE ( 'NONE', ( #164, #115 ), #131, .T. ) ;
#119 = COORDINATED_UNIVERSAL_TIME_OFFSET ( 8, 0, .BEHIND. ) ;
#120 = DIRECTION ( 'NONE',  ( -1.000000000000000000, -0.0000000000000000000, -0.0000000000000000000 ) ) ;
#121 = CARTESIAN_POINT ( 'NONE',  ( 0.07296850393700790582, 0.0000000000000000000, 0.0000000000000000000 ) ) ;
#122 = CARTESIAN_POINT ( 'NONE',  ( 0.0000000000000000000, 0.0000000000000000000, 0.0000000000000000000 ) ) ;
#123 = CALENDAR_DATE ( 2020, 10, 6 ) ;
#124 = PERSON_AND_ORGANIZATION ( #228, #79 ) ;
#125 = DIRECTION ( 'NONE',  ( 0.0000000000000000000, 0.0000000000000000000, 1.000000000000000000 ) ) ;
#126 = APPROVAL_ROLE ( '' ) ;
#127 = AXIS2_PLACEMENT_3D ( 'NONE', #167, #273, #279 ) ;
#128 = APPROVAL_ROLE ( '' ) ;
#129 = EDGE_LOOP ( 'NONE', ( #78 ) ) ;
#130 = EDGE_CURVE ( 'NONE', #224, #224, #170, .T. ) ;
#131 = CYLINDRICAL_SURFACE ( 'NONE', #97, 0.05000000000000000278 ) ;
#132 = CARTESIAN_POINT ( 'NONE',  ( 0.0000000000000000000, 0.0000000000000000000, 0.0000000000000000000 ) ) ;
#133 = PRODUCT_DEFINITION_SHAPE ( 'NONE', 'NONE',  #148 ) ;
#134 = DIRECTION ( 'NONE',  ( 0.0000000000000000000, 0.0000000000000000000, -1.000000000000000000 ) ) ;
#135 = FACE_OUTER_BOUND ( 'NONE', #181, .T. ) ;
#136 = APPROVAL_PERSON_ORGANIZATION ( #242, #210, #150 ) ;
#137 = AXIS2_PLACEMENT_3D ( 'NONE', #184, #42, #200 ) ;
#138 = APPROVAL_PERSON_ORGANIZATION ( #13, #265, #128 ) ;
#139 = AXIS2_PLACEMENT_3D ( 'NONE', #234, #5, #169 ) ;
#140 = ADVANCED_FACE ( 'NONE', ( #266 ), #41, .F. ) ;
#141 = EDGE_LOOP ( 'NONE', ( #108 ) ) ;
#142 = EDGE_LOOP ( 'NONE', ( #268 ) ) ;
#143 = CARTESIAN_POINT ( 'NONE',  ( 0.1339606299212598717, 0.0000000000000000000, 0.0000000000000000000 ) ) ;
#144 = CALENDAR_DATE ( 2020, 10, 6 ) ;
#145 = EDGE_CURVE ( 'NONE', #106, #106, #159, .T. ) ;
#146 = CARTESIAN_POINT ( 'NONE',  ( 0.1349606299212598726, 0.0000000000000000000, 0.05000000000000000278 ) ) ;
#147 = DIRECTION ( 'NONE',  ( -1.000000000000000000, -0.0000000000000000000, -0.0000000000000000000 ) ) ;
#148 = PRODUCT_DEFINITION ( 'UNKNOWN', '', #199, #168 ) ;
#149 =( CONVERSION_BASED_UNIT ( 'INCH', #209 ) LENGTH_UNIT ( ) NAMED_UNIT ( #185 ) );
#150 = APPROVAL_ROLE ( '' ) ;
#151 = APPLICATION_CONTEXT ( 'configuration controlled 3d designs of mechanical parts and assemblies' ) ;
#152 = CC_DESIGN_DATE_AND_TIME_ASSIGNMENT ( #2, #7, ( #107 ) ) ;
#153 = PERSON_AND_ORGANIZATION ( #228, #79 ) ;
#154 = EDGE_CURVE ( 'NONE', #64, #64, #178, .T. ) ;
#155 = CC_DESIGN_PERSON_AND_ORGANIZATION_ASSIGNMENT ( #153, #258, ( #107 ) ) ;
#156 = EDGE_CURVE ( 'NONE', #282, #282, #296, .T. ) ;
#157 = EDGE_LOOP ( 'NONE', ( #18 ) ) ;
#158 = DIRECTION ( 'NONE',  ( -1.000000000000000000, -0.0000000000000000000, -0.0000000000000000000 ) ) ;
#159 = CIRCLE ( 'NONE', #139, 0.04500000000000000527 ) ;
#160 = CARTESIAN_POINT ( 'NONE',  ( 0.07296850393700790582, 0.0000000000000000000, 0.0000000000000000000 ) ) ;
#161 = CARTESIAN_POINT ( 'NONE',  ( 0.0000000000000000000, 0.0000000000000000000, 0.0000000000000000000 ) ) ;
#162 = MANIFOLD_SOLID_BREP ( 'Cut-Extrude2', #195 ) ;
#163 = PRODUCT ( 'PE1001-2_3D', 'PE1001-2_3D', '', ( #211 ) ) ;
#164 = FACE_OUTER_BOUND ( 'NONE', #35, .T. ) ;
#165 = AXIS2_PLACEMENT_3D ( 'NONE', #232, #30, #190 ) ;
#166 = FACE_OUTER_BOUND ( 'NONE', #180, .T. ) ;
#167 = CARTESIAN_POINT ( 'NONE',  ( 0.3149606299212598381, 0.0000000000000000000, 0.0000000000000000000 ) ) ;
#168 = DESIGN_CONTEXT ( 'detailed design', #151, 'design' ) ;
#169 = DIRECTION ( 'NONE',  ( 0.0000000000000000000, 0.0000000000000000000, 1.000000000000000000 ) ) ;
#170 = CIRCLE ( 'NONE', #29, 0.04500000000000000527 ) ;
#171 = EDGE_LOOP ( 'NONE', ( #285 ) ) ;
#172 = AXIS2_PLACEMENT_3D ( 'NONE', #225, #120, #1 ) ;
#173 = APPLICATION_PROTOCOL_DEFINITION ( 'international standard', 'config_control_design', 1994, #151 ) ;
#174 = DATE_AND_TIME ( #123, #49 ) ;
#175 = CIRCLE ( 'NONE', #283, 0.05000000000000000278 ) ;
#176 = SECURITY_CLASSIFICATION_LEVEL ( 'unclassified' ) ;
#177 = EDGE_CURVE ( 'NONE', #56, #56, #233, .T. ) ;
#178 = CIRCLE ( 'NONE', #127, 0.007499999999999999722 ) ;
#179 = AXIS2_PLACEMENT_3D ( 'NONE', #250, #252, #113 ) ;
#180 = EDGE_LOOP ( 'NONE', ( #52 ) ) ;
#181 = EDGE_LOOP ( 'NONE', ( #101 ) ) ;
#182 = AXIS2_PLACEMENT_3D ( 'NONE', #247, #183, #17 ) ;
#183 = DIRECTION ( 'NONE',  ( 1.000000000000000000, 0.0000000000000000000, 0.0000000000000000000 ) ) ;
#184 = CARTESIAN_POINT ( 'NONE',  ( 0.1349606299212598726, 0.05000000000000000278, 0.0000000000000000000 ) ) ;
#185 = DIMENSIONAL_EXPONENTS ( 1.000000000000000000, 0.0000000000000000000, 0.0000000000000000000, 0.0000000000000000000, 0.0000000000000000000, 0.0000000000000000000, 0.0000000000000000000 ) ;
#186 = EDGE_LOOP ( 'NONE', ( #112 ) ) ;
#187 = EDGE_CURVE ( 'NONE', #274, #274, #287, .T. ) ;
#188 = APPROVAL_DATE_TIME ( #249, #265 ) ;
#189 = CARTESIAN_POINT ( 'NONE',  ( 0.07196850393700790494, 0.0000000000000000000, 0.04500000000000000527 ) ) ;
#190 = DIRECTION ( 'NONE',  ( 0.0000000000000000000, 0.0000000000000000000, 1.000000000000000000 ) ) ;
#191 = DATE_TIME_ROLE ( 'creation_date' ) ;
#192 = DATE_AND_TIME ( #114, #20 ) ;
#193 = SHAPE_DEFINITION_REPRESENTATION ( #133, #25 ) ;
#194 = DIRECTION ( 'NONE',  ( -1.000000000000000000, 0.0000000000000000000, 0.0000000000000000000 ) ) ;
#195 = CLOSED_SHELL ( 'NONE', ( #16, #118, #202, #226, #81, #140, #292, #59, #26, #87, #216 ) ) ;
#196 = CARTESIAN_POINT ( 'NONE',  ( 0.1339606299212598717, 0.0000000000000000000, 0.0000000000000000000 ) ) ;
#197 = LOCAL_TIME ( 13, 35, 8.000000000000000000, #229 ) ;
#198 = EDGE_CURVE ( 'NONE', #21, #21, #175, .T. ) ;
#199 = PRODUCT_DEFINITION_FORMATION_WITH_SPECIFIED_SOURCE ( 'ANY', '', #163, .NOT_KNOWN. ) ;
#200 = DIRECTION ( 'NONE',  ( -0.0000000000000000000, 0.0000000000000000000, 1.000000000000000000 ) ) ;
#201 = EDGE_CURVE ( 'NONE', #241, #241, #219, .T. ) ;
#202 = ADVANCED_FACE ( 'NONE', ( #256, #83 ), #23, .F. ) ;
#203 = EDGE_LOOP ( 'NONE', ( #204 ) ) ;
#204 = ORIENTED_EDGE ( 'NONE', *, *, #177, .F. ) ;
#205 = CARTESIAN_POINT ( 'NONE',  ( 0.1349606299212598726, 0.0000000000000000000, -0.04500000000000000527 ) ) ;
#206 = VERTEX_POINT ( 'NONE', #46 ) ;
#207 = DIRECTION ( 'NONE',  ( -1.000000000000000000, 0.0000000000000000000, 0.0000000000000000000 ) ) ;
#208 = CARTESIAN_POINT ( 'NONE',  ( 0.07196850393700790494, 0.0000000000000000000, 0.05000000000000000278 ) ) ;
#209 = LENGTH_MEASURE_WITH_UNIT ( LENGTH_MEASURE( 0.02539999999999999897 ), #8 );
#210 = APPROVAL ( #288, 'UNSPECIFIED' ) ;
#211 = MECHANICAL_CONTEXT ( 'NONE', #103, 'mechanical' ) ;
#212 = ORIENTED_EDGE ( 'NONE', *, *, #198, .F. ) ;
#213 = PERSON_AND_ORGANIZATION ( #228, #79 ) ;
#214 = APPROVAL_STATUS ( 'not_yet_approved' ) ;
#215 = CC_DESIGN_APPROVAL ( #265, ( #148 ) ) ;
#216 = ADVANCED_FACE ( 'NONE', ( #102, #39 ), #92, .T. ) ;
#217 = DIRECTION ( 'NONE',  ( -1.000000000000000000, -0.0000000000000000000, -0.0000000000000000000 ) ) ;
#218 = DIRECTION ( 'NONE',  ( 0.0000000000000000000, 0.0000000000000000000, -1.000000000000000000 ) ) ;
#219 = CIRCLE ( 'NONE', #54, 0.04500000000000000527 ) ;
#220 = DIRECTION ( 'NONE',  ( 0.0000000000000000000, 0.0000000000000000000, -1.000000000000000000 ) ) ;
#221 = CARTESIAN_POINT ( 'NONE',  ( 0.3149606299212598381, 0.007499999999999999722, 0.0000000000000000000 ) ) ;
#222 = FACE_BOUND ( 'NONE', #264, .T. ) ;
#223 = CARTESIAN_POINT ( 'NONE',  ( 0.07196850393700790494, 0.007499999999999999722, 0.0000000000000000000 ) ) ;
#224 = VERTEX_POINT ( 'NONE', #205 ) ;
#225 = CARTESIAN_POINT ( 'NONE',  ( 0.0000000000000000000, 0.0000000000000000000, 0.0000000000000000000 ) ) ;
#226 = ADVANCED_FACE ( 'NONE', ( #278, #50 ), #34, .F. ) ;
#227 = CC_DESIGN_DATE_AND_TIME_ASSIGNMENT ( #38, #191, ( #148 ) ) ;
#228 = PERSON ( 'UNSPECIFIED', 'UNSPECIFIED', 'UNSPECIFIED', ('UNSPECIFIED'), ('UNSPECIFIED'), ('UNSPECIFIED') ) ;
#229 = COORDINATED_UNIVERSAL_TIME_OFFSET ( 8, 0, .BEHIND. ) ;
#230 = PRODUCT_RELATED_PRODUCT_CATEGORY ( 'detail', '', ( #163 ) ) ;
#231 = APPROVAL_PERSON_ORGANIZATION ( #255, #76, #126 ) ;
#232 = CARTESIAN_POINT ( 'NONE',  ( 0.1349606299212598726, 0.0000000000000000000, 0.0000000000000000000 ) ) ;
#233 = CIRCLE ( 'NONE', #179, 0.007499999999999999722 ) ;
#234 = CARTESIAN_POINT ( 'NONE',  ( 0.07196850393700790494, 0.0000000000000000000, 0.0000000000000000000 ) ) ;
#235 = CC_DESIGN_PERSON_AND_ORGANIZATION_ASSIGNMENT ( #124, #99, ( #148 ) ) ;
#236 = PERSON_AND_ORGANIZATION_ROLE ( 'design_owner' ) ;
#237 = EDGE_LOOP ( 'NONE', ( #275 ) ) ;
#238 = PERSON_AND_ORGANIZATION_ROLE ( 'creator' ) ;
#239 =( NAMED_UNIT ( * ) PLANE_ANGLE_UNIT ( ) SI_UNIT ( $, .RADIAN. ) );
#240 = ORIENTED_EDGE ( 'NONE', *, *, #10, .F. ) ;
#241 = VERTEX_POINT ( 'NONE', #71 ) ;
#242 = PERSON_AND_ORGANIZATION ( #228, #79 ) ;
#243 = CC_DESIGN_SECURITY_CLASSIFICATION ( #107, ( #199 ) ) ;
#244 = DIRECTION ( 'NONE',  ( 1.000000000000000000, 0.0000000000000000000, 0.0000000000000000000 ) ) ;
#245 = CARTESIAN_POINT ( 'NONE',  ( 0.1349606299212598726, 0.0000000000000000000, 0.0000000000000000000 ) ) ;
#246 = CYLINDRICAL_SURFACE ( 'NONE', #32, 0.04500000000000000527 ) ;
#247 = CARTESIAN_POINT ( 'NONE',  ( 0.1339606299212598717, 0.0000000000000000000, 0.0000000000000000000 ) ) ;
#248 = UNCERTAINTY_MEASURE_WITH_UNIT (LENGTH_MEASURE( 1.000000000000000082E-05 ), #149, 'distance_accuracy_value', 'NONE');
#249 = DATE_AND_TIME ( #144, #197 ) ;
#250 = CARTESIAN_POINT ( 'NONE',  ( 0.07296850393700790582, 0.0000000000000000000, 0.0000000000000000000 ) ) ;
#251 = FACE_OUTER_BOUND ( 'NONE', #73, .T. ) ;
#252 = DIRECTION ( 'NONE',  ( -1.000000000000000000, 0.0000000000000000000, 0.0000000000000000000 ) ) ;
#253 = CC_DESIGN_PERSON_AND_ORGANIZATION_ASSIGNMENT ( #28, #53, ( #199 ) ) ;
#254 = CARTESIAN_POINT ( 'NONE',  ( 0.0000000000000000000, 0.0000000000000000000, 0.007499999999999999722 ) ) ;
#255 = PERSON_AND_ORGANIZATION ( #228, #79 ) ;
#256 = FACE_BOUND ( 'NONE', #237, .T. ) ;
#257 = DIRECTION ( 'NONE',  ( -1.000000000000000000, -0.0000000000000000000, -0.0000000000000000000 ) ) ;
#258 = PERSON_AND_ORGANIZATION_ROLE ( 'classification_officer' ) ;
#259 = APPROVAL_DATE_TIME ( #174, #76 ) ;
#260 = EDGE_LOOP ( 'NONE', ( #45 ) ) ;
#261 = DIRECTION ( 'NONE',  ( 1.000000000000000000, 0.0000000000000000000, 0.0000000000000000000 ) ) ;
#262 = AXIS2_PLACEMENT_3D ( 'NONE', #62, #194, #36 ) ;
#263 = PERSON_AND_ORGANIZATION ( #228, #79 ) ;
#264 = EDGE_LOOP ( 'NONE', ( #240 ) ) ;
#265 = APPROVAL ( #9, 'UNSPECIFIED' ) ;
#266 = FACE_OUTER_BOUND ( 'NONE', #298, .T. ) ;
#267 = EDGE_LOOP ( 'NONE', ( #109 ) ) ;
#268 = ORIENTED_EDGE ( 'NONE', *, *, #177, .T. ) ;
#269 = DIRECTION ( 'NONE',  ( 1.000000000000000000, 0.0000000000000000000, 0.0000000000000000000 ) ) ;
#270 = CALENDAR_DATE ( 2020, 10, 6 ) ;
#271 = VERTEX_POINT ( 'NONE', #95 ) ;
#272 = DIRECTION ( 'NONE',  ( 0.0000000000000000000, 0.0000000000000000000, -1.000000000000000000 ) ) ;
#273 = DIRECTION ( 'NONE',  ( -1.000000000000000000, -0.0000000000000000000, -0.0000000000000000000 ) ) ;
#274 = VERTEX_POINT ( 'NONE', #254 ) ;
#275 = ORIENTED_EDGE ( 'NONE', *, *, #130, .F. ) ;
#276 = CC_DESIGN_APPROVAL ( #76, ( #107 ) ) ;
#277 = CARTESIAN_POINT ( 'NONE',  ( 0.0000000000000000000, 0.0000000000000000000, 0.0000000000000000000 ) ) ;
#278 = FACE_OUTER_BOUND ( 'NONE', #157, .T. ) ;
#279 = DIRECTION ( 'NONE',  ( 0.0000000000000000000, 0.0000000000000000000, 1.000000000000000000 ) ) ;
#280 = EDGE_LOOP ( 'NONE', ( #89 ) ) ;
#281 = DIRECTION ( 'NONE',  ( -1.000000000000000000, -0.0000000000000000000, -0.0000000000000000000 ) ) ;
#282 = VERTEX_POINT ( 'NONE', #146 ) ;
#283 = AXIS2_PLACEMENT_3D ( 'NONE', #93, #257, #125 ) ;
#284 = DIRECTION ( 'NONE',  ( 0.0000000000000000000, 0.0000000000000000000, 1.000000000000000000 ) ) ;
#285 = ORIENTED_EDGE ( 'NONE', *, *, #145, .T. ) ;
#286 = ORIENTED_EDGE ( 'NONE', *, *, #156, .F. ) ;
#287 = CIRCLE ( 'NONE', #40, 0.007499999999999999722 ) ;
#288 = APPROVAL_STATUS ( 'not_yet_approved' ) ;
#289 = COORDINATED_UNIVERSAL_TIME_OFFSET ( 8, 0, .BEHIND. ) ;
#290 = EDGE_LOOP ( 'NONE', ( #67 ) ) ;
#291 = DIRECTION ( 'NONE',  ( 1.000000000000000000, 0.0000000000000000000, 0.0000000000000000000 ) ) ;
#292 = ADVANCED_FACE ( 'NONE', ( #33, #43 ), #86, .T. ) ;
#293 = COORDINATED_UNIVERSAL_TIME_OFFSET ( 8, 0, .BEHIND. ) ;
#294 = CIRCLE ( 'NONE', #295, 0.04500000000000000527 ) ;
#295 = AXIS2_PLACEMENT_3D ( 'NONE', #196, #244, #218 ) ;
#296 = CIRCLE ( 'NONE', #165, 0.05000000000000000278 ) ;
#297 =( GEOMETRIC_REPRESENTATION_CONTEXT ( 3 ) GLOBAL_UNCERTAINTY_ASSIGNED_CONTEXT ( ( #248 ) ) GLOBAL_UNIT_ASSIGNED_CONTEXT ( ( #149, #239, #6 ) ) REPRESENTATION_CONTEXT ( 'NONE', 'WORKASPACE' ) );
#298 = EDGE_LOOP ( 'NONE', ( #11 ) ) ;
ENDSEC;
END-ISO-10303-21;
