ISO-10303-21;
HEADER;
FILE_DESCRIPTION (( 'STEP AP203' ),
    '1' );
FILE_NAME ('PE1001-4_3D.step',
    '2022-02-25T18:01:03',
    ( '' ),
    ( '' ),
    'SwSTEP 2.0',
    'SolidWorks 2021',
    '' );
FILE_SCHEMA (( 'CONFIG_CONTROL_DESIGN' ));
ENDSEC;

DATA;
#1 = DIRECTION ( 'NONE',  ( 1.000000000000000000, 0.000000000000000000, 0.000000000000000000 ) ) ;
#2 = EDGE_CURVE ( 'NONE', #190, #190, #174, .T. ) ;
#3 =( GEOMETRIC_REPRESENTATION_CONTEXT ( 3 ) GLOBAL_UNCERTAINTY_ASSIGNED_CONTEXT ( ( #213 ) ) GLOBAL_UNIT_ASSIGNED_CONTEXT ( ( #153, #64, #113 ) ) REPRESENTATION_CONTEXT ( 'NONE', 'WORKASPACE' ) );
#4 = CARTESIAN_POINT ( 'NONE',  ( 0.000000000000000000, 0.000000000000000000, -0.2200000000000000011 ) ) ;
#5 = CALENDAR_DATE ( 2022, 25, 2 ) ;
#6 = PLANE ( 'NONE',  #110 ) ;
#7 = DIRECTION ( 'NONE',  ( 1.000000000000000000, 0.000000000000000000, 0.000000000000000000 ) ) ;
#8 = DIRECTION ( 'NONE',  ( 1.000000000000000000, 0.000000000000000000, -0.000000000000000000 ) ) ;
#9 = AXIS2_PLACEMENT_3D ( 'NONE', #19, #82, #85 ) ;
#10 = SHAPE_DEFINITION_REPRESENTATION ( #170, #167 ) ;
#11 = CARTESIAN_POINT ( 'NONE',  ( 0.000000000000000000, 0.000000000000000000, -0.2200000000000000011 ) ) ;
#12 = CIRCLE ( 'NONE', #79, 0.01000000000000000021 ) ;
#13 = PERSON_AND_ORGANIZATION_ROLE ( 'creator' ) ;
#14 = MECHANICAL_CONTEXT ( 'NONE', #166, 'mechanical' ) ;
#15 = LENGTH_MEASURE_WITH_UNIT ( LENGTH_MEASURE( 0.02539999999999999897 ), #173 );
#16 = EDGE_CURVE ( 'NONE', #30, #30, #194, .T. ) ;
#17 = DIRECTION ( 'NONE',  ( 0.000000000000000000, 0.000000000000000000, 1.000000000000000000 ) ) ;
#18 = DATE_TIME_ROLE ( 'creation_date' ) ;
#19 = CARTESIAN_POINT ( 'NONE',  ( 0.000000000000000000, 0.000000000000000000, -0.07000000000000000666 ) ) ;
#20 = COORDINATED_UNIVERSAL_TIME_OFFSET ( 8, 0, .BEHIND. ) ;
#21 = EDGE_LOOP ( 'NONE', ( #141 ) ) ;
#22 = EDGE_LOOP ( 'NONE', ( #24 ) ) ;
#23 = APPROVAL_STATUS ( 'not_yet_approved' ) ;
#24 = ORIENTED_EDGE ( 'NONE', *, *, #207, .F. ) ;
#25 = EDGE_CURVE ( 'NONE', #33, #33, #83, .T. ) ;
#26 = APPROVAL_PERSON_ORGANIZATION ( #112, #63, #215 ) ;
#27 = DIRECTION ( 'NONE',  ( 0.000000000000000000, 0.000000000000000000, 1.000000000000000000 ) ) ;
#28 = AXIS2_PLACEMENT_3D ( 'NONE', #44, #61, #62 ) ;
#29 = MANIFOLD_SOLID_BREP ( 'Boss-Extrude2', #168 ) ;
#30 = VERTEX_POINT ( 'NONE', #187 ) ;
#31 = AXIS2_PLACEMENT_3D ( 'NONE', #143, #41, #107 ) ;
#32 = APPROVAL_PERSON_ORGANIZATION ( #128, #218, #51 ) ;
#33 = VERTEX_POINT ( 'NONE', #98 ) ;
#34 = EDGE_LOOP ( 'NONE', ( #87 ) ) ;
#35 = DIRECTION ( 'NONE',  ( 0.000000000000000000, 0.000000000000000000, 1.000000000000000000 ) ) ;
#36 = LOCAL_TIME ( 10, 1, 3.000000000000000000, #120 ) ;
#37 = CARTESIAN_POINT ( 'NONE',  ( 0.000000000000000000, 0.000000000000000000, -0.1390000000000000124 ) ) ;
#38 = APPROVAL_ROLE ( '' ) ;
#39 = DIRECTION ( 'NONE',  ( 0.000000000000000000, 0.000000000000000000, 1.000000000000000000 ) ) ;
#40 = APPROVAL_DATE_TIME ( #108, #218 ) ;
#41 = DIRECTION ( 'NONE',  ( 0.000000000000000000, 0.000000000000000000, 1.000000000000000000 ) ) ;
#42 = SECURITY_CLASSIFICATION ( '', '', #137 ) ;
#43 = EDGE_CURVE ( 'NONE', #204, #204, #12, .T. ) ;
#44 = CARTESIAN_POINT ( 'NONE',  ( 0.000000000000000000, 0.000000000000000000, 0.000000000000000000 ) ) ;
#45 = CARTESIAN_POINT ( 'NONE',  ( 0.01000000000000000021, 0.000000000000000000, 0.000000000000000000 ) ) ;
#46 = PRODUCT_DEFINITION ( 'UNKNOWN', '', #59, #127 ) ;
#47 = FACE_OUTER_BOUND ( 'NONE', #50, .T. ) ;
#48 = LOCAL_TIME ( 10, 1, 3.000000000000000000, #142 ) ;
#49 = DIRECTION ( 'NONE',  ( 0.000000000000000000, 0.000000000000000000, 1.000000000000000000 ) ) ;
#50 = EDGE_LOOP ( 'NONE', ( #121 ) ) ;
#51 = APPROVAL_ROLE ( '' ) ;
#52 = ORIENTED_EDGE ( 'NONE', *, *, #16, .F. ) ;
#53 = CALENDAR_DATE ( 2022, 25, 2 ) ;
#54 = ORIENTED_EDGE ( 'NONE', *, *, #2, .T. ) ;
#55 = PERSON_AND_ORGANIZATION_ROLE ( 'design_supplier' ) ;
#56 = ORIENTED_EDGE ( 'NONE', *, *, #86, .F. ) ;
#57 = CC_DESIGN_PERSON_AND_ORGANIZATION_ASSIGNMENT ( #93, #13, ( #46 ) ) ;
#58 = CALENDAR_DATE ( 2022, 25, 2 ) ;
#59 = PRODUCT_DEFINITION_FORMATION_WITH_SPECIFIED_SOURCE ( 'ANY', '', #146, .NOT_KNOWN. ) ;
#60 = ADVANCED_FACE ( 'NONE', ( #191, #124 ), #176, .F. ) ;
#61 = DIRECTION ( 'NONE',  ( 0.000000000000000000, 0.000000000000000000, 1.000000000000000000 ) ) ;
#62 = DIRECTION ( 'NONE',  ( 1.000000000000000000, 0.000000000000000000, 0.000000000000000000 ) ) ;
#63 = APPROVAL ( #202, 'UNSPECIFIED' ) ;
#64 =( NAMED_UNIT ( * ) PLANE_ANGLE_UNIT ( ) SI_UNIT ( $, .RADIAN. ) );
#65 = AXIS2_PLACEMENT_3D ( 'NONE', #161, #160, #206 ) ;
#66 = EDGE_LOOP ( 'NONE', ( #52 ) ) ;
#67 = DIRECTION ( 'NONE',  ( 1.000000000000000000, 0.000000000000000000, -0.000000000000000000 ) ) ;
#68 = FACE_OUTER_BOUND ( 'NONE', #66, .T. ) ;
#69 = AXIS2_PLACEMENT_3D ( 'NONE', #136, #39, #8 ) ;
#70 = FACE_OUTER_BOUND ( 'NONE', #179, .T. ) ;
#71 = CC_DESIGN_DATE_AND_TIME_ASSIGNMENT ( #159, #18, ( #46 ) ) ;
#72 = DIRECTION ( 'NONE',  ( -0.000000000000000000, -0.000000000000000000, -1.000000000000000000 ) ) ;
#73 = PERSON_AND_ORGANIZATION_ROLE ( 'design_owner' ) ;
#74 = APPLICATION_PROTOCOL_DEFINITION ( 'international standard', 'config_control_design', 1994, #115 ) ;
#75 = AXIS2_PLACEMENT_3D ( 'NONE', #11, #49, #117 ) ;
#76 = DIRECTION ( 'NONE',  ( 1.000000000000000000, 0.000000000000000000, -0.000000000000000000 ) ) ;
#77 = CARTESIAN_POINT ( 'NONE',  ( 0.000000000000000000, 0.000000000000000000, 0.000000000000000000 ) ) ;
#78 = FACE_BOUND ( 'NONE', #21, .T. ) ;
#79 = AXIS2_PLACEMENT_3D ( 'NONE', #192, #72, #7 ) ;
#80 = CARTESIAN_POINT ( 'NONE',  ( 0.07900000000000000078, 0.000000000000000000, -0.07000000000000000666 ) ) ;
#81 = CARTESIAN_POINT ( 'NONE',  ( 0.000000000000000000, 0.000000000000000000, -0.2200000000000000011 ) ) ;
#82 = DIRECTION ( 'NONE',  ( 0.000000000000000000, 0.000000000000000000, 1.000000000000000000 ) ) ;
#83 = CIRCLE ( 'NONE', #65, 0.01000000000000000021 ) ;
#84 = PERSON_AND_ORGANIZATION ( #132, #162 ) ;
#85 = DIRECTION ( 'NONE',  ( 1.000000000000000000, 0.000000000000000000, 0.000000000000000000 ) ) ;
#86 = EDGE_CURVE ( 'NONE', #171, #171, #91, .T. ) ;
#87 = ORIENTED_EDGE ( 'NONE', *, *, #43, .F. ) ;
#88 = EDGE_LOOP ( 'NONE', ( #158 ) ) ;
#89 = COORDINATED_UNIVERSAL_TIME_OFFSET ( 8, 0, .BEHIND. ) ;
#90 = FACE_OUTER_BOUND ( 'NONE', #122, .T. ) ;
#91 = CIRCLE ( 'NONE', #9, 0.07900000000000000078 ) ;
#92 = ADVANCED_FACE ( 'NONE', ( #68 ), #6, .F. ) ;
#93 = PERSON_AND_ORGANIZATION ( #132, #162 ) ;
#94 = FACE_OUTER_BOUND ( 'NONE', #34, .T. ) ;
#95 = LOCAL_TIME ( 10, 1, 3.000000000000000000, #201 ) ;
#96 = CARTESIAN_POINT ( 'NONE',  ( 0.01000000000000000021, 0.000000000000000000, -0.07000000000000000666 ) ) ;
#97 = AXIS2_PLACEMENT_3D ( 'NONE', #4, #17, #99 ) ;
#98 = CARTESIAN_POINT ( 'NONE',  ( 0.01000000000000000021, 0.000000000000000000, -0.1390000000000000124 ) ) ;
#99 = DIRECTION ( 'NONE',  ( 1.000000000000000000, 0.000000000000000000, 0.000000000000000000 ) ) ;
#100 = ORIENTED_EDGE ( 'NONE', *, *, #207, .T. ) ;
#101 = LOCAL_TIME ( 10, 1, 3.000000000000000000, #20 ) ;
#102 = DIRECTION ( 'NONE',  ( 0.000000000000000000, 0.000000000000000000, 1.000000000000000000 ) ) ;
#103 = CC_DESIGN_PERSON_AND_ORGANIZATION_ASSIGNMENT ( #84, #55, ( #59 ) ) ;
#104 = PERSON_AND_ORGANIZATION_ROLE ( 'creator' ) ;
#105 = FACE_OUTER_BOUND ( 'NONE', #109, .T. ) ;
#106 = PERSON_AND_ORGANIZATION ( #132, #162 ) ;
#107 = DIRECTION ( 'NONE',  ( 1.000000000000000000, 0.000000000000000000, 0.000000000000000000 ) ) ;
#108 = DATE_AND_TIME ( #5, #101 ) ;
#109 = EDGE_LOOP ( 'NONE', ( #54 ) ) ;
#110 = AXIS2_PLACEMENT_3D ( 'NONE', #126, #208, #67 ) ;
#111 = PRODUCT_RELATED_PRODUCT_CATEGORY ( 'detail', '', ( #146 ) ) ;
#112 = PERSON_AND_ORGANIZATION ( #132, #162 ) ;
#113 =( NAMED_UNIT ( * ) SI_UNIT ( $, .STERADIAN. ) SOLID_ANGLE_UNIT ( ) );
#114 = PLANE ( 'NONE',  #185 ) ;
#115 = APPLICATION_CONTEXT ( 'configuration controlled 3d designs of mechanical parts and assemblies' ) ;
#116 = APPROVAL_PERSON_ORGANIZATION ( #181, #154, #38 ) ;
#117 = DIRECTION ( 'NONE',  ( 1.000000000000000000, 0.000000000000000000, 0.000000000000000000 ) ) ;
#118 = ADVANCED_FACE ( 'NONE', ( #138 ), #195, .T. ) ;
#119 = ADVANCED_FACE ( 'NONE', ( #105, #70 ), #198, .T. ) ;
#120 = COORDINATED_UNIVERSAL_TIME_OFFSET ( 8, 0, .BEHIND. ) ;
#121 = ORIENTED_EDGE ( 'NONE', *, *, #86, .T. ) ;
#122 = EDGE_LOOP ( 'NONE', ( #129 ) ) ;
#123 = AXIS2_PLACEMENT_3D ( 'NONE', #37, #102, #135 ) ;
#124 = FACE_OUTER_BOUND ( 'NONE', #200, .T. ) ;
#125 = CALENDAR_DATE ( 2022, 25, 2 ) ;
#126 = CARTESIAN_POINT ( 'NONE',  ( 0.000000000000000000, 0.000000000000000000, -0.2200000000000000011 ) ) ;
#127 = DESIGN_CONTEXT ( 'detailed design', #115, 'design' ) ;
#128 = PERSON_AND_ORGANIZATION ( #132, #162 ) ;
#129 = ORIENTED_EDGE ( 'NONE', *, *, #25, .T. ) ;
#130 = ADVANCED_FACE ( 'NONE', ( #182, #90 ), #165, .T. ) ;
#131 = CC_DESIGN_PERSON_AND_ORGANIZATION_ASSIGNMENT ( #106, #104, ( #59 ) ) ;
#132 = PERSON ( 'UNSPECIFIED', 'UNSPECIFIED', 'UNSPECIFIED', ('UNSPECIFIED'), ('UNSPECIFIED'), ('UNSPECIFIED') ) ;
#133 = FACE_OUTER_BOUND ( 'NONE', #22, .T. ) ;
#134 = CYLINDRICAL_SURFACE ( 'NONE', #163, 0.01000000000000000021 ) ;
#135 = DIRECTION ( 'NONE',  ( 1.000000000000000000, 0.000000000000000000, 0.000000000000000000 ) ) ;
#136 = CARTESIAN_POINT ( 'NONE',  ( 0.000000000000000000, 0.000000000000000000, 0.000000000000000000 ) ) ;
#137 = SECURITY_CLASSIFICATION_LEVEL ( 'unclassified' ) ;
#138 = FACE_OUTER_BOUND ( 'NONE', #209, .T. ) ;
#139 = CC_DESIGN_APPROVAL ( #63, ( #46 ) ) ;
#140 = PERSON_AND_ORGANIZATION_ROLE ( 'classification_officer' ) ;
#141 = ORIENTED_EDGE ( 'NONE', *, *, #43, .T. ) ;
#142 = COORDINATED_UNIVERSAL_TIME_OFFSET ( 8, 0, .BEHIND. ) ;
#143 = CARTESIAN_POINT ( 'NONE',  ( 0.000000000000000000, 0.000000000000000000, -0.1390000000000000124 ) ) ;
#144 = AXIS2_PLACEMENT_3D ( 'NONE', #177, #35, #180 ) ;
#145 = PERSON_AND_ORGANIZATION ( #132, #162 ) ;
#146 = PRODUCT ( 'PE1001-4_3D', 'PE1001-4_3D', '', ( #14 ) ) ;
#147 = AXIS2_PLACEMENT_3D ( 'NONE', #77, #27, #150 ) ;
#148 = DIRECTION ( 'NONE',  ( 0.000000000000000000, 0.000000000000000000, 1.000000000000000000 ) ) ;
#149 = DIRECTION ( 'NONE',  ( 0.000000000000000000, 0.000000000000000000, 1.000000000000000000 ) ) ;
#150 = DIRECTION ( 'NONE',  ( 1.000000000000000000, 0.000000000000000000, 0.000000000000000000 ) ) ;
#151 = ADVANCED_FACE ( 'NONE', ( #78, #47 ), #114, .T. ) ;
#152 = CC_DESIGN_APPROVAL ( #218, ( #42 ) ) ;
#153 =( CONVERSION_BASED_UNIT ( 'INCH', #15 ) LENGTH_UNIT ( ) NAMED_UNIT ( #199 ) );
#154 = APPROVAL ( #23, 'UNSPECIFIED' ) ;
#155 = VERTEX_POINT ( 'NONE', #45 ) ;
#156 = ORIENTED_EDGE ( 'NONE', *, *, #25, .F. ) ;
#157 = DATE_TIME_ROLE ( 'classification_date' ) ;
#158 = ORIENTED_EDGE ( 'NONE', *, *, #16, .T. ) ;
#159 = DATE_AND_TIME ( #125, #48 ) ;
#160 = DIRECTION ( 'NONE',  ( -0.000000000000000000, -0.000000000000000000, -1.000000000000000000 ) ) ;
#161 = CARTESIAN_POINT ( 'NONE',  ( 0.000000000000000000, 0.000000000000000000, -0.1390000000000000124 ) ) ;
#162 = ORGANIZATION ( 'UNSPECIFIED', 'UNSPECIFIED', '' ) ;
#163 = AXIS2_PLACEMENT_3D ( 'NONE', #81, #148, #1 ) ;
#164 = DATE_AND_TIME ( #58, #36 ) ;
#165 = CYLINDRICAL_SURFACE ( 'NONE', #75, 0.01000000000000000021 ) ;
#166 = APPLICATION_CONTEXT ( 'configuration controlled 3d designs of mechanical parts and assemblies' ) ;
#167 = ADVANCED_BREP_SHAPE_REPRESENTATION ( 'PE1001-4_3D', ( #29, #147 ), #3 ) ;
#168 = CLOSED_SHELL ( 'NONE', ( #130, #92, #119, #60, #151, #118, #210 ) ) ;
#169 = DATE_AND_TIME ( #186, #95 ) ;
#170 = PRODUCT_DEFINITION_SHAPE ( 'NONE', 'NONE',  #46 ) ;
#171 = VERTEX_POINT ( 'NONE', #80 ) ;
#172 = APPLICATION_PROTOCOL_DEFINITION ( 'international standard', 'config_control_design', 1994, #166 ) ;
#173 =( LENGTH_UNIT ( ) NAMED_UNIT ( * ) SI_UNIT ( $, .METRE. ) );
#174 = CIRCLE ( 'NONE', #123, 0.07900000000000000078 ) ;
#175 = CC_DESIGN_DATE_AND_TIME_ASSIGNMENT ( #164, #157, ( #42 ) ) ;
#176 = PLANE ( 'NONE',  #144 ) ;
#177 = CARTESIAN_POINT ( 'NONE',  ( 0.000000000000000000, 0.000000000000000000, -0.1390000000000000124 ) ) ;
#178 = CIRCLE ( 'NONE', #28, 0.01000000000000000021 ) ;
#179 = EDGE_LOOP ( 'NONE', ( #56 ) ) ;
#180 = DIRECTION ( 'NONE',  ( 1.000000000000000000, 0.000000000000000000, -0.000000000000000000 ) ) ;
#181 = PERSON_AND_ORGANIZATION ( #132, #162 ) ;
#182 = FACE_OUTER_BOUND ( 'NONE', #88, .T. ) ;
#183 = CC_DESIGN_PERSON_AND_ORGANIZATION_ASSIGNMENT ( #214, #140, ( #42 ) ) ;
#184 = LOCAL_TIME ( 10, 1, 3.000000000000000000, #89 ) ;
#185 = AXIS2_PLACEMENT_3D ( 'NONE', #188, #149, #76 ) ;
#186 = CALENDAR_DATE ( 2022, 25, 2 ) ;
#187 = CARTESIAN_POINT ( 'NONE',  ( 0.01000000000000000021, 0.000000000000000000, -0.2200000000000000011 ) ) ;
#188 = CARTESIAN_POINT ( 'NONE',  ( 0.000000000000000000, 0.000000000000000000, -0.07000000000000000666 ) ) ;
#189 = CC_DESIGN_APPROVAL ( #154, ( #59 ) ) ;
#190 = VERTEX_POINT ( 'NONE', #203 ) ;
#191 = FACE_BOUND ( 'NONE', #193, .T. ) ;
#192 = CARTESIAN_POINT ( 'NONE',  ( 0.000000000000000000, 0.000000000000000000, -0.07000000000000000666 ) ) ;
#193 = EDGE_LOOP ( 'NONE', ( #156 ) ) ;
#194 = CIRCLE ( 'NONE', #97, 0.01000000000000000021 ) ;
#195 = PLANE ( 'NONE',  #69 ) ;
#196 = CC_DESIGN_PERSON_AND_ORGANIZATION_ASSIGNMENT ( #145, #73, ( #146 ) ) ;
#197 = APPROVAL_STATUS ( 'not_yet_approved' ) ;
#198 = CYLINDRICAL_SURFACE ( 'NONE', #31, 0.07900000000000000078 ) ;
#199 = DIMENSIONAL_EXPONENTS ( 1.000000000000000000, 0.000000000000000000, 0.000000000000000000, 0.000000000000000000, 0.000000000000000000, 0.000000000000000000, 0.000000000000000000 ) ;
#200 = EDGE_LOOP ( 'NONE', ( #212 ) ) ;
#201 = COORDINATED_UNIVERSAL_TIME_OFFSET ( 8, 0, .BEHIND. ) ;
#202 = APPROVAL_STATUS ( 'not_yet_approved' ) ;
#203 = CARTESIAN_POINT ( 'NONE',  ( 0.07900000000000000078, 0.000000000000000000, -0.1390000000000000124 ) ) ;
#204 = VERTEX_POINT ( 'NONE', #96 ) ;
#205 = DATE_AND_TIME ( #53, #184 ) ;
#206 = DIRECTION ( 'NONE',  ( 1.000000000000000000, 0.000000000000000000, 0.000000000000000000 ) ) ;
#207 = EDGE_CURVE ( 'NONE', #155, #155, #178, .T. ) ;
#208 = DIRECTION ( 'NONE',  ( 0.000000000000000000, 0.000000000000000000, 1.000000000000000000 ) ) ;
#209 = EDGE_LOOP ( 'NONE', ( #100 ) ) ;
#210 = ADVANCED_FACE ( 'NONE', ( #94, #133 ), #134, .T. ) ;
#211 = APPROVAL_DATE_TIME ( #205, #154 ) ;
#212 = ORIENTED_EDGE ( 'NONE', *, *, #2, .F. ) ;
#213 = UNCERTAINTY_MEASURE_WITH_UNIT (LENGTH_MEASURE( 1.000000000000000082E-05 ), #153, 'distance_accuracy_value', 'NONE');
#214 = PERSON_AND_ORGANIZATION ( #132, #162 ) ;
#215 = APPROVAL_ROLE ( '' ) ;
#216 = CC_DESIGN_SECURITY_CLASSIFICATION ( #42, ( #59 ) ) ;
#217 = APPROVAL_DATE_TIME ( #169, #63 ) ;
#218 = APPROVAL ( #197, 'UNSPECIFIED' ) ;
ENDSEC;
END-ISO-10303-21;
