ISO-10303-21;
HEADER;
FILE_DESCRIPTION (( 'STEP AP214' ),
    '1' );
FILE_NAME ('PE1016-10.step',
    '2021-04-21T15:52:14',
    ( '' ),
    ( '' ),
    'SwSTEP 2.0',
    'SolidWorks 2020',
    '' );
FILE_SCHEMA (( 'AUTOMOTIVE_DESIGN' ));
ENDSEC;

DATA;
#1 = CYLINDRICAL_SURFACE ( 'NONE', #219, 0.2550000000000000044 ) ;
#2 = DIRECTION ( 'NONE',  ( 1.000000000000000000, 0.000000000000000000, 0.000000000000000000 ) ) ;
#3 = DIRECTION ( 'NONE',  ( 0.000000000000000000, -0.000000000000000000, 1.000000000000000000 ) ) ;
#4 = AXIS2_PLACEMENT_3D ( 'NONE', #28, #161, #137 ) ;
#5 =( NAMED_UNIT ( * ) SI_UNIT ( $, .STERADIAN. ) SOLID_ANGLE_UNIT ( ) );
#6 = DIRECTION ( 'NONE',  ( 0.000000000000000000, 0.000000000000000000, 1.000000000000000000 ) ) ;
#7 = FILL_AREA_STYLE_COLOUR ( '', #76 ) ;
#8 =( LENGTH_UNIT ( ) NAMED_UNIT ( * ) SI_UNIT ( .MILLI., .METRE. ) );
#9 = ORIENTED_EDGE ( 'NONE', *, *, #16, .T. ) ;
#10 = VECTOR ( 'NONE', #296, 1000.000000000000000 ) ;
#11 = ORIENTED_EDGE ( 'NONE', *, *, #248, .F. ) ;
#12 = EDGE_LOOP ( 'NONE', ( #191, #198, #247, #290, #84, #59, #217, #61 ) ) ;
#13 = EDGE_CURVE ( 'NONE', #124, #92, #24, .T. ) ;
#14 = ORIENTED_EDGE ( 'NONE', *, *, #37, .F. ) ;
#15 = CARTESIAN_POINT ( 'NONE',  ( -0.2550000000000000044, 3.122849337825750543E-17, -0.2550000000000000044 ) ) ;
#16 = EDGE_CURVE ( 'NONE', #267, #146, #133, .T. ) ;
#17 = DIRECTION ( 'NONE',  ( 0.000000000000000000, 0.000000000000000000, -1.000000000000000000 ) ) ;
#18 = AXIS2_PLACEMENT_3D ( 'NONE', #160, #81, #211 ) ;
#19 = DIRECTION ( 'NONE',  ( 0.000000000000000000, 0.000000000000000000, 1.000000000000000000 ) ) ;
#20 = CARTESIAN_POINT ( 'NONE',  ( 0.2550000000000000044, 0.000000000000000000, -2.029999999999999805 ) ) ;
#21 = EDGE_CURVE ( 'NONE', #92, #124, #205, .T. ) ;
#22 = FACE_OUTER_BOUND ( 'NONE', #269, .T. ) ;
#23 = DIRECTION ( 'NONE',  ( 1.000000000000000000, 0.000000000000000000, 0.000000000000000000 ) ) ;
#24 = CIRCLE ( 'NONE', #245, 0.2550000000000000044 ) ;
#25 = CARTESIAN_POINT ( 'NONE',  ( 0.000000000000000000, 0.000000000000000000, -2.029999999999999805 ) ) ;
#26 = FILL_AREA_STYLE ('',( #52 ) ) ;
#27 = EDGE_CURVE ( 'NONE', #147, #38, #298, .T. ) ;
#28 = CARTESIAN_POINT ( 'NONE',  ( 0.000000000000000000, 0.000000000000000000, -0.2550000000000000044 ) ) ;
#29 = DIRECTION ( 'NONE',  ( -0.000000000000000000, -0.000000000000000000, 1.000000000000000000 ) ) ;
#30 =( NAMED_UNIT ( * ) PLANE_ANGLE_UNIT ( ) SI_UNIT ( $, .RADIAN. ) );
#31 = SURFACE_STYLE_USAGE ( .BOTH. , #120 ) ;
#32 = SURFACE_STYLE_FILL_AREA ( #26 ) ;
#33 = ORIENTED_EDGE ( 'NONE', *, *, #276, .F. ) ;
#34 = ORIENTED_EDGE ( 'NONE', *, *, #37, .T. ) ;
#35 = AXIS2_PLACEMENT_3D ( 'NONE', #97, #302, #165 ) ;
#36 = ORIENTED_EDGE ( 'NONE', *, *, #155, .F. ) ;
#37 = EDGE_CURVE ( 'NONE', #242, #64, #69, .T. ) ;
#38 = VERTEX_POINT ( 'NONE', #225 ) ;
#39 = VERTEX_POINT ( 'NONE', #178 ) ;
#40 = DIRECTION ( 'NONE',  ( 0.000000000000000000, -1.000000000000000000, 0.000000000000000000 ) ) ;
#41 = VECTOR ( 'NONE', #156, 1000.000000000000000 ) ;
#42 = FACE_OUTER_BOUND ( 'NONE', #111, .T. ) ;
#43 = DIRECTION ( 'NONE',  ( -0.000000000000000000, -0.000000000000000000, 1.000000000000000000 ) ) ;
#44 = STYLED_ITEM ( 'NONE', ( #282 ), #216 ) ;
#45 = AXIS2_PLACEMENT_3D ( 'NONE', #113, #203, #299 ) ;
#46 = CARTESIAN_POINT ( 'NONE',  ( 0.2500499950009997807, 0.04999999999999994033, -2.029999999999999805 ) ) ;
#47 = DIRECTION ( 'NONE',  ( 1.000000000000000000, 0.000000000000000000, 0.000000000000000000 ) ) ;
#48 = UNCERTAINTY_MEASURE_WITH_UNIT (LENGTH_MEASURE( 1.000000000000000082E-05 ), #260, 'distance_accuracy_value', 'NONE');
#49 = LINE ( 'NONE', #163, #185 ) ;
#50 = PLANE ( 'NONE',  #45 ) ;
#51 = ADVANCED_FACE ( 'NONE', ( #176 ), #275, .T. ) ;
#52 = FILL_AREA_STYLE_COLOUR ( '', #109 ) ;
#53 = CIRCLE ( 'NONE', #231, 0.2550000000000000044 ) ;
#54 = CARTESIAN_POINT ( 'NONE',  ( 0.000000000000000000, 0.000000000000000000, -2.029999999999999805 ) ) ;
#55 = CARTESIAN_POINT ( 'NONE',  ( -0.2550000000000000600, 3.122849337825751159E-17, -3.299999999999999822 ) ) ;
#56 = CARTESIAN_POINT ( 'NONE',  ( 0.000000000000000000, 0.000000000000000000, -2.029999999999999805 ) ) ;
#57 = ORIENTED_EDGE ( 'NONE', *, *, #91, .F. ) ;
#58 = PRODUCT_CONTEXT ( 'NONE', #60, 'mechanical' ) ;
#59 = ORIENTED_EDGE ( 'NONE', *, *, #140, .F. ) ;
#60 = APPLICATION_CONTEXT ( 'automotive_design' ) ;
#61 = ORIENTED_EDGE ( 'NONE', *, *, #13, .T. ) ;
#62 = ADVANCED_FACE ( 'NONE', ( #42 ), #244, .T. ) ;
#63 = CIRCLE ( 'NONE', #18, 0.2550000000000000600 ) ;
#64 = VERTEX_POINT ( 'NONE', #70 ) ;
#65 = VERTEX_POINT ( 'NONE', #46 ) ;
#66 = EDGE_CURVE ( 'NONE', #267, #242, #251, .T. ) ;
#67 = ORIENTED_EDGE ( 'NONE', *, *, #140, .T. ) ;
#68 = ORIENTED_EDGE ( 'NONE', *, *, #123, .T. ) ;
#69 = CIRCLE ( 'NONE', #89, 0.2550000000000000044 ) ;
#70 = CARTESIAN_POINT ( 'NONE',  ( 0.2550000000000000044, 0.000000000000000000, -3.299999999999999822 ) ) ;
#71 = DIRECTION ( 'NONE',  ( -1.000000000000000000, 0.000000000000000000, 0.000000000000000000 ) ) ;
#72 = DIRECTION ( 'NONE',  ( 0.000000000000000000, 0.000000000000000000, -1.000000000000000000 ) ) ;
#73 = DIRECTION ( 'NONE',  ( 0.000000000000000000, 0.000000000000000000, 1.000000000000000000 ) ) ;
#74 = LINE ( 'NONE', #204, #200 ) ;
#75 = CARTESIAN_POINT ( 'NONE',  ( -0.2500499950009997807, 0.05000000000000006523, -3.299999999999999822 ) ) ;
#76 = COLOUR_RGB ( '',0.7921568627450980005, 0.8196078431372548767, 0.9333333333333333481 ) ;
#77 = APPLICATION_PROTOCOL_DEFINITION ( 'draft international standard', 'automotive_design', 1998, #127 ) ;
#78 = CARTESIAN_POINT ( 'NONE',  ( -0.2500499950009997807, -0.05000000000000006523, -3.299999999999999822 ) ) ;
#79 = DIRECTION ( 'NONE',  ( 0.000000000000000000, 0.000000000000000000, 1.000000000000000000 ) ) ;
#80 = EDGE_CURVE ( 'NONE', #240, #267, #288, .T. ) ;
#81 = DIRECTION ( 'NONE',  ( 0.000000000000000000, 0.000000000000000000, -1.000000000000000000 ) ) ;
#82 = ORIENTED_EDGE ( 'NONE', *, *, #276, .T. ) ;
#83 = AXIS2_PLACEMENT_3D ( 'NONE', #152, #40, #220 ) ;
#84 = ORIENTED_EDGE ( 'NONE', *, *, #27, .F. ) ;
#85 = ORIENTED_EDGE ( 'NONE', *, *, #16, .F. ) ;
#86 = AXIS2_PLACEMENT_3D ( 'NONE', #54, #73, #96 ) ;
#87 = DIRECTION ( 'NONE',  ( 0.000000000000000000, 1.000000000000000000, 0.000000000000000000 ) ) ;
#88 = DIRECTION ( 'NONE',  ( -1.000000000000000000, 0.000000000000000000, 0.000000000000000000 ) ) ;
#89 = AXIS2_PLACEMENT_3D ( 'NONE', #175, #17, #88 ) ;
#90 = ORIENTED_EDGE ( 'NONE', *, *, #80, .T. ) ;
#91 = EDGE_CURVE ( 'NONE', #64, #124, #222, .T. ) ;
#92 = VERTEX_POINT ( 'NONE', #15 ) ;
#93 = DIRECTION ( 'NONE',  ( 0.000000000000000000, 0.000000000000000000, 1.000000000000000000 ) ) ;
#94 = AXIS2_PLACEMENT_3D ( 'NONE', #25, #6, #179 ) ;
#95 = FACE_OUTER_BOUND ( 'NONE', #150, .T. ) ;
#96 = DIRECTION ( 'NONE',  ( 1.000000000000000000, 0.000000000000000000, -0.000000000000000000 ) ) ;
#97 = CARTESIAN_POINT ( 'NONE',  ( 0.000000000000000000, 0.000000000000000000, -2.029999999999999805 ) ) ;
#98 = CIRCLE ( 'NONE', #4, 0.2550000000000000044 ) ;
#99 = CARTESIAN_POINT ( 'NONE',  ( -0.2550000000000000044, 3.122849337825750543E-17, -2.029999999999999805 ) ) ;
#100 = SURFACE_STYLE_FILL_AREA ( #235 ) ;
#101 = ORIENTED_EDGE ( 'NONE', *, *, #66, .T. ) ;
#102 = AXIS2_PLACEMENT_3D ( 'NONE', #280, #114, #209 ) ;
#103 = ORIENTED_EDGE ( 'NONE', *, *, #229, .T. ) ;
#104 = ORIENTED_EDGE ( 'NONE', *, *, #13, .F. ) ;
#105 = PRODUCT_RELATED_PRODUCT_CATEGORY ( 'part', '', ( #250 ) ) ;
#106 = CARTESIAN_POINT ( 'NONE',  ( -0.2500499950009997807, 0.05000000000000006523, -2.029999999999999805 ) ) ;
#107 = FACE_OUTER_BOUND ( 'NONE', #221, .T. ) ;
#108 = DIRECTION ( 'NONE',  ( 1.000000000000000000, 0.000000000000000000, 0.000000000000000000 ) ) ;
#109 = COLOUR_RGB ( '',0.7921568627450980005, 0.8196078431372548767, 0.9333333333333333481 ) ;
#110 = VECTOR ( 'NONE', #29, 1000.000000000000000 ) ;
#111 = EDGE_LOOP ( 'NONE', ( #33, #104, #266 ) ) ;
#112 = LINE ( 'NONE', #277, #153 ) ;
#113 = CARTESIAN_POINT ( 'NONE',  ( 0.000000000000000000, 0.000000000000000000, -3.299999999999999822 ) ) ;
#114 = DIRECTION ( 'NONE',  ( -2.438967143433287424E-16, -1.000000000000000000, 0.000000000000000000 ) ) ;
#115 = VECTOR ( 'NONE', #43, 1000.000000000000000 ) ;
#116 =( LENGTH_UNIT ( ) NAMED_UNIT ( * ) SI_UNIT ( .MILLI., .METRE. ) );
#117 = CARTESIAN_POINT ( 'NONE',  ( 0.2500499950009997807, 0.04999999999999994033, -3.299999999999999822 ) ) ;
#118 = DIRECTION ( 'NONE',  ( 1.000000000000000000, -2.438967143433287424E-16, -0.000000000000000000 ) ) ;
#119 = PLANE ( 'NONE',  #132 ) ;
#120 = SURFACE_SIDE_STYLE ('',( #100 ) ) ;
#121 = SURFACE_STYLE_USAGE ( .BOTH. , #187 ) ;
#122 = ORIENTED_EDGE ( 'NONE', *, *, #248, .T. ) ;
#123 = EDGE_CURVE ( 'NONE', #38, #195, #112, .T. ) ;
#124 = VERTEX_POINT ( 'NONE', #272 ) ;
#125 =( GEOMETRIC_REPRESENTATION_CONTEXT ( 3 ) GLOBAL_UNCERTAINTY_ASSIGNED_CONTEXT ( ( #48 ) ) GLOBAL_UNIT_ASSIGNED_CONTEXT ( ( #260, #162, #5 ) ) REPRESENTATION_CONTEXT ( 'NONE', 'WORKASPACE' ) );
#126 = VERTEX_POINT ( 'NONE', #202 ) ;
#127 = APPLICATION_CONTEXT ( 'automotive_design' ) ;
#128 = CIRCLE ( 'NONE', #83, 0.2550000000000000044 ) ;
#129 = DIRECTION ( 'NONE',  ( 0.000000000000000000, 1.000000000000000000, 0.000000000000000000 ) ) ;
#130 = DIRECTION ( 'NONE',  ( 1.000000000000000000, 0.000000000000000000, 0.000000000000000000 ) ) ;
#131 = CARTESIAN_POINT ( 'NONE',  ( 0.000000000000000000, 0.000000000000000000, -3.299999999999999822 ) ) ;
#132 = AXIS2_PLACEMENT_3D ( 'NONE', #188, #144, #3 ) ;
#133 = LINE ( 'NONE', #201, #115 ) ;
#134 = DIRECTION ( 'NONE',  ( -0.000000000000000000, -0.000000000000000000, -1.000000000000000000 ) ) ;
#135 = PRODUCT_DEFINITION_SHAPE ( 'NONE', 'NONE',  #145 ) ;
#136 = FACE_OUTER_BOUND ( 'NONE', #213, .T. ) ;
#137 = DIRECTION ( 'NONE',  ( -1.000000000000000000, 1.224646799147353207E-16, 0.000000000000000000 ) ) ;
#138 = AXIS2_PLACEMENT_3D ( 'NONE', #273, #129, #130 ) ;
#139 = CARTESIAN_POINT ( 'NONE',  ( 0.2500499950009997807, 0.04999999999999994033, -3.299999999999999822 ) ) ;
#140 = EDGE_CURVE ( 'NONE', #64, #147, #53, .T. ) ;
#141 = CARTESIAN_POINT ( 'NONE',  ( -0.2500499950009997807, -0.05000000000000006523, -2.029999999999999805 ) ) ;
#142 =( NAMED_UNIT ( * ) SI_UNIT ( $, .STERADIAN. ) SOLID_ANGLE_UNIT ( ) );
#143 = MECHANICAL_DESIGN_GEOMETRIC_PRESENTATION_REPRESENTATION (  '', ( #44 ), #210 ) ;
#144 = DIRECTION ( 'NONE',  ( 0.000000000000000000, 1.000000000000000000, 0.000000000000000000 ) ) ;
#145 = PRODUCT_DEFINITION ( 'UNKNOWN', '', #199, #253 ) ;
#146 = VERTEX_POINT ( 'NONE', #106 ) ;
#147 = VERTEX_POINT ( 'NONE', #197 ) ;
#148 = ORIENTED_EDGE ( 'NONE', *, *, #27, .T. ) ;
#149 = CIRCLE ( 'NONE', #35, 0.2550000000000000044 ) ;
#150 = EDGE_LOOP ( 'NONE', ( #68, #271, #190, #148 ) ) ;
#151 = ORIENTED_EDGE ( 'NONE', *, *, #189, .F. ) ;
#152 = CARTESIAN_POINT ( 'NONE',  ( 0.000000000000000000, 0.000000000000000000, -0.2550000000000000044 ) ) ;
#153 = VECTOR ( 'NONE', #71, 1000.000000000000000 ) ;
#154 = CARTESIAN_POINT ( 'NONE',  ( 0.000000000000000000, 0.000000000000000000, -0.2550000000000000044 ) ) ;
#155 = EDGE_CURVE ( 'NONE', #124, #126, #128, .T. ) ;
#156 = DIRECTION ( 'NONE',  ( 1.000000000000000000, -2.438967143433287424E-16, -0.000000000000000000 ) ) ;
#157 = CARTESIAN_POINT ( 'NONE',  ( 0.000000000000000000, 0.000000000000000000, -0.2550000000000000044 ) ) ;
#158 = AXIS2_PLACEMENT_3D ( 'NONE', #208, #79, #2 ) ;
#159 = DIRECTION ( 'NONE',  ( -1.000000000000000000, 0.000000000000000000, 0.000000000000000000 ) ) ;
#160 = CARTESIAN_POINT ( 'NONE',  ( 0.000000000000000000, 0.000000000000000000, -3.299999999999999822 ) ) ;
#161 = DIRECTION ( 'NONE',  ( 1.224646799147353207E-16, 1.000000000000000000, -0.000000000000000000 ) ) ;
#162 =( NAMED_UNIT ( * ) PLANE_ANGLE_UNIT ( ) SI_UNIT ( $, .RADIAN. ) );
#163 = CARTESIAN_POINT ( 'NONE',  ( 0.2500499950009997807, -0.05000000000000006523, -3.299999999999999822 ) ) ;
#164 = DIRECTION ( 'NONE',  ( 0.000000000000000000, 0.000000000000000000, 1.000000000000000000 ) ) ;
#165 = DIRECTION ( 'NONE',  ( 1.000000000000000000, 0.000000000000000000, 0.000000000000000000 ) ) ;
#166 = ORIENTED_EDGE ( 'NONE', *, *, #21, .F. ) ;
#167 = AXIS2_PLACEMENT_3D ( 'NONE', #249, #87, #47 ) ;
#168 = ORIENTED_EDGE ( 'NONE', *, *, #261, .F. ) ;
#169 = ORIENTED_EDGE ( 'NONE', *, *, #261, .T. ) ;
#170 = STYLED_ITEM ( 'NONE', ( #256 ), #286 ) ;
#171 = ADVANCED_FACE ( 'NONE', ( #107 ), #294, .F. ) ;
#172 = ORIENTED_EDGE ( 'NONE', *, *, #80, .F. ) ;
#173 = CARTESIAN_POINT ( 'NONE',  ( 0.2500499950009997807, -0.04999999999999998196, -3.299999999999999822 ) ) ;
#174 = ADVANCED_FACE ( 'NONE', ( #230 ), #1, .T. ) ;
#175 = CARTESIAN_POINT ( 'NONE',  ( 0.000000000000000000, 0.000000000000000000, -3.299999999999999822 ) ) ;
#176 = FACE_OUTER_BOUND ( 'NONE', #291, .T. ) ;
#177 = DIRECTION ( 'NONE',  ( 0.000000000000000000, 0.000000000000000000, -1.000000000000000000 ) ) ;
#178 = CARTESIAN_POINT ( 'NONE',  ( -0.2500499950009997807, -0.05000000000000006523, -3.299999999999999822 ) ) ;
#179 = DIRECTION ( 'NONE',  ( 1.000000000000000000, 0.000000000000000000, 0.000000000000000000 ) ) ;
#180 = DIRECTION ( 'NONE',  ( 0.000000000000000000, 0.000000000000000000, 1.000000000000000000 ) ) ;
#181 =( NAMED_UNIT ( * ) SI_UNIT ( $, .STERADIAN. ) SOLID_ANGLE_UNIT ( ) );
#182 = CYLINDRICAL_SURFACE ( 'NONE', #268, 0.2550000000000000044 ) ;
#183 = APPLICATION_PROTOCOL_DEFINITION ( 'draft international standard', 'automotive_design', 1998, #60 ) ;
#184 = PRESENTATION_LAYER_ASSIGNMENT (  '', '', ( #44 ) ) ;
#185 = VECTOR ( 'NONE', #257, 1000.000000000000000 ) ;
#186 = FACE_OUTER_BOUND ( 'NONE', #241, .T. ) ;
#187 = SURFACE_SIDE_STYLE ('',( #32 ) ) ;
#188 = CARTESIAN_POINT ( 'NONE',  ( 0.2500499950009997807, -0.05000000000000006523, -3.299999999999999822 ) ) ;
#189 = EDGE_CURVE ( 'NONE', #195, #38, #214, .T. ) ;
#190 = ORIENTED_EDGE ( 'NONE', *, *, #229, .F. ) ;
#191 = ORIENTED_EDGE ( 'NONE', *, *, #224, .F. ) ;
#192 = VECTOR ( 'NONE', #19, 1000.000000000000000 ) ;
#193 = EDGE_LOOP ( 'NONE', ( #172, #289, #218, #57, #14, #196, #169, #85 ) ) ;
#194 = EDGE_CURVE ( 'NONE', #242, #65, #262, .T. ) ;
#195 = VERTEX_POINT ( 'NONE', #141 ) ;
#196 = ORIENTED_EDGE ( 'NONE', *, *, #194, .T. ) ;
#197 = CARTESIAN_POINT ( 'NONE',  ( 0.2500499950009997807, -0.04999999999999998196, -3.299999999999999822 ) ) ;
#198 = ORIENTED_EDGE ( 'NONE', *, *, #206, .F. ) ;
#199 = PRODUCT_DEFINITION_FORMATION_WITH_SPECIFIED_SOURCE ( 'ANY', '', #250, .NOT_KNOWN. ) ;
#200 = VECTOR ( 'NONE', #118, 1000.000000000000000 ) ;
#201 = CARTESIAN_POINT ( 'NONE',  ( -0.2500499950009997807, 0.05000000000000006523, -3.299999999999999822 ) ) ;
#202 = CARTESIAN_POINT ( 'NONE',  ( 1.561424668912875271E-17, 0.000000000000000000, 0.000000000000000000 ) ) ;
#203 = DIRECTION ( 'NONE',  ( 0.000000000000000000, 0.000000000000000000, -1.000000000000000000 ) ) ;
#204 = CARTESIAN_POINT ( 'NONE',  ( 0.2500499950009997807, 0.04999999999999994033, -2.029999999999999805 ) ) ;
#205 = CIRCLE ( 'NONE', #274, 0.2550000000000000044 ) ;
#206 = EDGE_CURVE ( 'NONE', #39, #240, #63, .T. ) ;
#207 = DIRECTION ( 'NONE',  ( -0.000000000000000000, -0.000000000000000000, 1.000000000000000000 ) ) ;
#208 = CARTESIAN_POINT ( 'NONE',  ( 0.000000000000000000, 0.000000000000000000, 0.000000000000000000 ) ) ;
#209 = DIRECTION ( 'NONE',  ( 1.000000000000000000, -2.438967143433287424E-16, 0.000000000000000000 ) ) ;
#210 =( GEOMETRIC_REPRESENTATION_CONTEXT ( 3 ) GLOBAL_UNCERTAINTY_ASSIGNED_CONTEXT ( ( #300 ) ) GLOBAL_UNIT_ASSIGNED_CONTEXT ( ( #8, #212, #142 ) ) REPRESENTATION_CONTEXT ( 'NONE', 'WORKASPACE' ) );
#211 = DIRECTION ( 'NONE',  ( -1.000000000000000000, 0.000000000000000000, 0.000000000000000000 ) ) ;
#212 =( NAMED_UNIT ( * ) PLANE_ANGLE_UNIT ( ) SI_UNIT ( $, .RADIAN. ) );
#213 = EDGE_LOOP ( 'NONE', ( #215, #151 ) ) ;
#214 = CIRCLE ( 'NONE', #94, 0.2550000000000000044 ) ;
#215 = ORIENTED_EDGE ( 'NONE', *, *, #123, .F. ) ;
#216 = ADVANCED_BREP_SHAPE_REPRESENTATION ( 'PE1016-10', ( #286, #158 ), #292 ) ;
#217 = ORIENTED_EDGE ( 'NONE', *, *, #91, .T. ) ;
#218 = ORIENTED_EDGE ( 'NONE', *, *, #21, .T. ) ;
#219 = AXIS2_PLACEMENT_3D ( 'NONE', #234, #93, #232 ) ;
#220 = DIRECTION ( 'NONE',  ( 0.000000000000000000, 0.000000000000000000, -1.000000000000000000 ) ) ;
#221 = EDGE_LOOP ( 'NONE', ( #122, #264, #237, #9 ) ) ;
#222 = LINE ( 'NONE', #20, #192 ) ;
#223 = VECTOR ( 'NONE', #252, 1000.000000000000000 ) ;
#224 = EDGE_CURVE ( 'NONE', #240, #92, #287, .T. ) ;
#225 = CARTESIAN_POINT ( 'NONE',  ( 0.2500499950009997807, -0.05000000000000006523, -2.029999999999999805 ) ) ;
#226 = DIRECTION ( 'NONE',  ( -1.000000000000000000, 0.000000000000000000, 0.000000000000000000 ) ) ;
#227 = UNCERTAINTY_MEASURE_WITH_UNIT (LENGTH_MEASURE( 1.000000000000000082E-05 ), #116, 'distance_accuracy_value', 'NONE');
#228 = PLANE ( 'NONE',  #86 ) ;
#229 = EDGE_CURVE ( 'NONE', #147, #39, #49, .T. ) ;
#230 = FACE_OUTER_BOUND ( 'NONE', #12, .T. ) ;
#231 = AXIS2_PLACEMENT_3D ( 'NONE', #278, #72, #159 ) ;
#232 = DIRECTION ( 'NONE',  ( 1.000000000000000000, 0.000000000000000000, 0.000000000000000000 ) ) ;
#233 = ADVANCED_FACE ( 'NONE', ( #136 ), #228, .F. ) ;
#234 = CARTESIAN_POINT ( 'NONE',  ( 0.000000000000000000, 0.000000000000000000, -2.029999999999999805 ) ) ;
#235 = FILL_AREA_STYLE ('',( #7 ) ) ;
#236 = ORIENTED_EDGE ( 'NONE', *, *, #206, .T. ) ;
#237 = ORIENTED_EDGE ( 'NONE', *, *, #66, .F. ) ;
#238 = ADVANCED_FACE ( 'NONE', ( #281 ), #182, .T. ) ;
#239 = PRESENTATION_LAYER_ASSIGNMENT (  '', '', ( #170 ) ) ;
#240 = VERTEX_POINT ( 'NONE', #55 ) ;
#241 = EDGE_LOOP ( 'NONE', ( #11, #168 ) ) ;
#242 = VERTEX_POINT ( 'NONE', #139 ) ;
#243 = CLOSED_SHELL ( 'NONE', ( #51, #238, #233, #279, #174, #171, #270, #285, #62 ) ) ;
#244 = SPHERICAL_SURFACE ( 'NONE', #138, 0.2550000000000000044 ) ;
#245 = AXIS2_PLACEMENT_3D ( 'NONE', #157, #246, #108 ) ;
#246 = DIRECTION ( 'NONE',  ( -0.000000000000000000, -0.000000000000000000, -1.000000000000000000 ) ) ;
#247 = ORIENTED_EDGE ( 'NONE', *, *, #265, .T. ) ;
#248 = EDGE_CURVE ( 'NONE', #146, #65, #74, .T. ) ;
#249 = CARTESIAN_POINT ( 'NONE',  ( 0.000000000000000000, 0.000000000000000000, -0.2550000000000000044 ) ) ;
#250 = PRODUCT ( 'PE1016-10', 'PE1016-10', '', ( #58 ) ) ;
#251 = LINE ( 'NONE', #293, #41 ) ;
#252 = DIRECTION ( 'NONE',  ( 0.000000000000000000, 0.000000000000000000, 1.000000000000000000 ) ) ;
#253 = PRODUCT_DEFINITION_CONTEXT ( 'detailed design', #127, 'design' ) ;
#254 = PLANE ( 'NONE',  #295 ) ;
#255 = MECHANICAL_DESIGN_GEOMETRIC_PRESENTATION_REPRESENTATION (  '', ( #170 ), #125 ) ;
#256 = PRESENTATION_STYLE_ASSIGNMENT (( #31 ) ) ;
#257 = DIRECTION ( 'NONE',  ( -1.000000000000000000, 0.000000000000000000, 0.000000000000000000 ) ) ;
#258 = SHAPE_DEFINITION_REPRESENTATION ( #135, #216 ) ;
#259 = DIRECTION ( 'NONE',  ( 1.000000000000000000, 0.000000000000000000, -0.000000000000000000 ) ) ;
#260 =( LENGTH_UNIT ( ) NAMED_UNIT ( * ) SI_UNIT ( .MILLI., .METRE. ) );
#261 = EDGE_CURVE ( 'NONE', #65, #146, #149, .T. ) ;
#262 = LINE ( 'NONE', #117, #263 ) ;
#263 = VECTOR ( 'NONE', #207, 1000.000000000000000 ) ;
#264 = ORIENTED_EDGE ( 'NONE', *, *, #194, .F. ) ;
#265 = EDGE_CURVE ( 'NONE', #39, #195, #283, .T. ) ;
#266 = ORIENTED_EDGE ( 'NONE', *, *, #155, .T. ) ;
#267 = VERTEX_POINT ( 'NONE', #75 ) ;
#268 = AXIS2_PLACEMENT_3D ( 'NONE', #56, #180, #23 ) ;
#269 = EDGE_LOOP ( 'NONE', ( #236, #90, #101, #34, #67, #103 ) ) ;
#270 = ADVANCED_FACE ( 'NONE', ( #95 ), #119, .F. ) ;
#271 = ORIENTED_EDGE ( 'NONE', *, *, #265, .F. ) ;
#272 = CARTESIAN_POINT ( 'NONE',  ( 0.2550000000000000044, 0.000000000000000000, -0.2550000000000000044 ) ) ;
#273 = CARTESIAN_POINT ( 'NONE',  ( 0.000000000000000000, 0.000000000000000000, -0.2550000000000000044 ) ) ;
#274 = AXIS2_PLACEMENT_3D ( 'NONE', #154, #134, #297 ) ;
#275 = SPHERICAL_SURFACE ( 'NONE', #167, 0.2550000000000000044 ) ;
#276 = EDGE_CURVE ( 'NONE', #92, #126, #98, .T. ) ;
#277 = CARTESIAN_POINT ( 'NONE',  ( 0.2500499950009997807, -0.05000000000000006523, -2.029999999999999805 ) ) ;
#278 = CARTESIAN_POINT ( 'NONE',  ( 0.000000000000000000, 0.000000000000000000, -3.299999999999999822 ) ) ;
#279 = ADVANCED_FACE ( 'NONE', ( #186 ), #254, .F. ) ;
#280 = CARTESIAN_POINT ( 'NONE',  ( 0.2500499950009997807, 0.04999999999999994033, -3.299999999999999822 ) ) ;
#281 = FACE_OUTER_BOUND ( 'NONE', #193, .T. ) ;
#282 = PRESENTATION_STYLE_ASSIGNMENT (( #121 ) ) ;
#283 = LINE ( 'NONE', #78, #110 ) ;
#284 = CARTESIAN_POINT ( 'NONE',  ( 0.000000000000000000, 0.000000000000000000, -2.029999999999999805 ) ) ;
#285 = ADVANCED_FACE ( 'NONE', ( #22 ), #50, .T. ) ;
#286 = MANIFOLD_SOLID_BREP ( 'Fillet1', #243 ) ;
#287 = LINE ( 'NONE', #99, #223 ) ;
#288 = CIRCLE ( 'NONE', #301, 0.2550000000000000600 ) ;
#289 = ORIENTED_EDGE ( 'NONE', *, *, #224, .T. ) ;
#290 = ORIENTED_EDGE ( 'NONE', *, *, #189, .T. ) ;
#291 = EDGE_LOOP ( 'NONE', ( #166, #82, #36 ) ) ;
#292 =( GEOMETRIC_REPRESENTATION_CONTEXT ( 3 ) GLOBAL_UNCERTAINTY_ASSIGNED_CONTEXT ( ( #227 ) ) GLOBAL_UNIT_ASSIGNED_CONTEXT ( ( #116, #30, #181 ) ) REPRESENTATION_CONTEXT ( 'NONE', 'WORKASPACE' ) );
#293 = CARTESIAN_POINT ( 'NONE',  ( 0.2500499950009997807, 0.04999999999999994033, -3.299999999999999822 ) ) ;
#294 = PLANE ( 'NONE',  #102 ) ;
#295 = AXIS2_PLACEMENT_3D ( 'NONE', #284, #164, #259 ) ;
#296 = DIRECTION ( 'NONE',  ( -0.000000000000000000, -0.000000000000000000, 1.000000000000000000 ) ) ;
#297 = DIRECTION ( 'NONE',  ( 1.000000000000000000, 0.000000000000000000, 0.000000000000000000 ) ) ;
#298 = LINE ( 'NONE', #173, #10 ) ;
#299 = DIRECTION ( 'NONE',  ( -1.000000000000000000, 0.000000000000000000, -0.000000000000000000 ) ) ;
#300 = UNCERTAINTY_MEASURE_WITH_UNIT (LENGTH_MEASURE( 1.000000000000000082E-05 ), #8, 'distance_accuracy_value', 'NONE');
#301 = AXIS2_PLACEMENT_3D ( 'NONE', #131, #177, #226 ) ;
#302 = DIRECTION ( 'NONE',  ( 0.000000000000000000, 0.000000000000000000, 1.000000000000000000 ) ) ;
ENDSEC;
END-ISO-10303-21;
