ISO-10303-21;
HEADER;
FILE_DESCRIPTION (( 'STEP AP214' ),
    '1' );
FILE_NAME ('PE1016-13.step',
    '2021-04-21T15:52:29',
    ( '' ),
    ( '' ),
    'SwSTEP 2.0',
    'SolidWorks 2020',
    '' );
FILE_SCHEMA (( 'AUTOMOTIVE_DESIGN' ));
ENDSEC;

DATA;
#1 = ORIENTED_EDGE ( 'NONE', *, *, #354, .F. ) ;
#2 = CARTESIAN_POINT ( 'NONE',  ( 0.000000000000000000, 0.000000000000000000, -1.909999999999999920 ) ) ;
#3 = VECTOR ( 'NONE', #64, 1000.000000000000000 ) ;
#4 = EDGE_CURVE ( 'NONE', #121, #156, #176, .T. ) ;
#5 = EDGE_LOOP ( 'NONE', ( #26, #28, #346, #30 ) ) ;
#6 = ORIENTED_EDGE ( 'NONE', *, *, #119, .T. ) ;
#7 = CARTESIAN_POINT ( 'NONE',  ( 0.000000000000000000, 0.000000000000000000, -3.690000000000000391 ) ) ;
#8 = FACE_BOUND ( 'NONE', #243, .T. ) ;
#9 = DIRECTION ( 'NONE',  ( 0.000000000000000000, 0.000000000000000000, -1.000000000000000000 ) ) ;
#10 = ADVANCED_FACE ( 'NONE', ( #168 ), #99, .T. ) ;
#11 = CARTESIAN_POINT ( 'NONE',  ( -0.1050000000000013006, 0.000000000000000000, 0.000000000000000000 ) ) ;
#12 = DIRECTION ( 'NONE',  ( -0.000000000000000000, -0.000000000000000000, 1.000000000000000000 ) ) ;
#13 = APPLICATION_CONTEXT ( 'automotive_design' ) ;
#14 = FACE_OUTER_BOUND ( 'NONE', #5, .T. ) ;
#15 = APPLICATION_PROTOCOL_DEFINITION ( 'draft international standard', 'automotive_design', 1998, #13 ) ;
#16 = CARTESIAN_POINT ( 'NONE',  ( 0.4550000000000000155, 0.000000000000000000, -0.3499999999999976463 ) ) ;
#17 = CARTESIAN_POINT ( 'NONE',  ( 0.2500499950009997252, 0.04999999999999991951, -2.420000000000000373 ) ) ;
#18 = CONICAL_SURFACE ( 'NONE', #240, 0.1050000000000013006, 0.7853981633974495002 ) ;
#19 = DIRECTION ( 'NONE',  ( 0.000000000000000000, 0.000000000000000000, -1.000000000000000000 ) ) ;
#20 = VERTEX_POINT ( 'NONE', #291 ) ;
#21 = VECTOR ( 'NONE', #111, 1000.000000000000000 ) ;
#22 = CARTESIAN_POINT ( 'NONE',  ( 0.2500499950009997807, -0.05000000000000004441, -2.420000000000000373 ) ) ;
#23 = CIRCLE ( 'NONE', #372, 0.1050000000000013006 ) ;
#24 = PRODUCT_RELATED_PRODUCT_CATEGORY ( 'part', '', ( #123 ) ) ;
#25 = LINE ( 'NONE', #178, #31 ) ;
#26 = ORIENTED_EDGE ( 'NONE', *, *, #367, .T. ) ;
#27 = EDGE_LOOP ( 'NONE', ( #89, #365, #162, #298, #221, #125, #1, #375 ) ) ;
#28 = ORIENTED_EDGE ( 'NONE', *, *, #105, .F. ) ;
#29 = EDGE_CURVE ( 'NONE', #154, #324, #167, .T. ) ;
#30 = ORIENTED_EDGE ( 'NONE', *, *, #4, .T. ) ;
#31 = VECTOR ( 'NONE', #118, 1000.000000000000000 ) ;
#32 = ORIENTED_EDGE ( 'NONE', *, *, #36, .F. ) ;
#33 = DIRECTION ( 'NONE',  ( -1.000000000000000000, 0.000000000000000000, 0.000000000000000000 ) ) ;
#34 = VECTOR ( 'NONE', #211, 1000.000000000000114 ) ;
#35 = ORIENTED_EDGE ( 'NONE', *, *, #36, .T. ) ;
#36 = EDGE_CURVE ( 'NONE', #91, #160, #104, .T. ) ;
#37 =( GEOMETRIC_REPRESENTATION_CONTEXT ( 3 ) GLOBAL_UNCERTAINTY_ASSIGNED_CONTEXT ( ( #126 ) ) GLOBAL_UNIT_ASSIGNED_CONTEXT ( ( #172, #259, #112 ) ) REPRESENTATION_CONTEXT ( 'NONE', 'WORKASPACE' ) );
#38 = DIRECTION ( 'NONE',  ( -0.000000000000000000, -0.000000000000000000, 1.000000000000000000 ) ) ;
#39 = AXIS2_PLACEMENT_3D ( 'NONE', #390, #364, #76 ) ;
#40 = CARTESIAN_POINT ( 'NONE',  ( -0.2550000000000000044, 3.122849337825750543E-17, -2.420000000000000373 ) ) ;
#41 = CARTESIAN_POINT ( 'NONE',  ( 0.000000000000000000, 0.000000000000000000, -1.909999999999999920 ) ) ;
#42 = DIRECTION ( 'NONE',  ( -1.000000000000000000, 0.000000000000000000, 0.000000000000000000 ) ) ;
#43 = DIRECTION ( 'NONE',  ( 0.000000000000000000, 0.000000000000000000, -1.000000000000000000 ) ) ;
#44 = DIRECTION ( 'NONE',  ( 0.000000000000000000, 0.000000000000000000, -1.000000000000000000 ) ) ;
#45 = FILL_AREA_STYLE ('',( #227 ) ) ;
#46 = EDGE_CURVE ( 'NONE', #154, #80, #174, .T. ) ;
#47 = CARTESIAN_POINT ( 'NONE',  ( 0.2550000000000000044, 0.000000000000000000, -2.420000000000000373 ) ) ;
#48 = AXIS2_PLACEMENT_3D ( 'NONE', #231, #316, #229 ) ;
#49 = DIRECTION ( 'NONE',  ( 0.000000000000000000, 0.000000000000000000, 1.000000000000000000 ) ) ;
#50 = DIRECTION ( 'NONE',  ( 1.000000000000000000, 0.000000000000000000, 0.000000000000000000 ) ) ;
#51 = ORIENTED_EDGE ( 'NONE', *, *, #29, .T. ) ;
#52 = ADVANCED_FACE ( 'NONE', ( #8, #101 ), #134, .F. ) ;
#53 = VECTOR ( 'NONE', #175, 1000.000000000000000 ) ;
#54 = DIRECTION ( 'NONE',  ( 0.000000000000000000, 0.000000000000000000, -1.000000000000000000 ) ) ;
#55 = ORIENTED_EDGE ( 'NONE', *, *, #292, .T. ) ;
#56 = CARTESIAN_POINT ( 'NONE',  ( 0.000000000000000000, 0.000000000000000000, -0.3499999999999976463 ) ) ;
#57 = DIRECTION ( 'NONE',  ( 0.000000000000000000, 0.000000000000000000, -1.000000000000000000 ) ) ;
#58 = EDGE_CURVE ( 'NONE', #324, #20, #200, .T. ) ;
#59 = EDGE_LOOP ( 'NONE', ( #246, #397 ) ) ;
#60 = DIRECTION ( 'NONE',  ( 0.000000000000000000, 0.000000000000000000, 1.000000000000000000 ) ) ;
#61 = VERTEX_POINT ( 'NONE', #16 ) ;
#62 = ORIENTED_EDGE ( 'NONE', *, *, #399, .T. ) ;
#63 = VERTEX_POINT ( 'NONE', #384 ) ;
#64 = DIRECTION ( 'NONE',  ( 0.000000000000000000, 0.000000000000000000, 1.000000000000000000 ) ) ;
#65 = CIRCLE ( 'NONE', #213, 0.2550000000000000044 ) ;
#66 = ORIENTED_EDGE ( 'NONE', *, *, #185, .F. ) ;
#67 = DIRECTION ( 'NONE',  ( 1.000000000000000000, 0.000000000000000000, 0.000000000000000000 ) ) ;
#68 = DIRECTION ( 'NONE',  ( 0.000000000000000000, 0.000000000000000000, -1.000000000000000000 ) ) ;
#69 = AXIS2_PLACEMENT_3D ( 'NONE', #82, #398, #329 ) ;
#70 = CARTESIAN_POINT ( 'NONE',  ( 0.2500499950009997252, -0.05000000000000004441, -3.690000000000000391 ) ) ;
#71 = SURFACE_SIDE_STYLE ('',( #230 ) ) ;
#72 = CYLINDRICAL_SURFACE ( 'NONE', #389, 0.4550000000000000155 ) ;
#73 =( NAMED_UNIT ( * ) SI_UNIT ( $, .STERADIAN. ) SOLID_ANGLE_UNIT ( ) );
#74 = CARTESIAN_POINT ( 'NONE',  ( 0.000000000000000000, 0.000000000000000000, -1.909999999999999920 ) ) ;
#75 = CARTESIAN_POINT ( 'NONE',  ( 0.000000000000000000, 0.000000000000000000, -2.420000000000000373 ) ) ;
#76 = DIRECTION ( 'NONE',  ( -1.000000000000000000, 0.000000000000000000, 0.000000000000000000 ) ) ;
#77 = DIRECTION ( 'NONE',  ( 1.000000000000000000, 0.000000000000000000, 0.000000000000000000 ) ) ;
#78 = ORIENTED_EDGE ( 'NONE', *, *, #363, .T. ) ;
#79 = CYLINDRICAL_SURFACE ( 'NONE', #303, 0.2550000000000000044 ) ;
#80 = VERTEX_POINT ( 'NONE', #173 ) ;
#81 = VECTOR ( 'NONE', #340, 1000.000000000000000 ) ;
#82 = CARTESIAN_POINT ( 'NONE',  ( 0.000000000000000000, 0.000000000000000000, 0.000000000000000000 ) ) ;
#83 = ORIENTED_EDGE ( 'NONE', *, *, #273, .F. ) ;
#84 = FILL_AREA_STYLE_COLOUR ( '', #232 ) ;
#85 = EDGE_LOOP ( 'NONE', ( #55, #97, #62, #400, #51, #218 ) ) ;
#86 = ADVANCED_BREP_SHAPE_REPRESENTATION ( 'PE1016-13', ( #250, #138 ), #37 ) ;
#87 = EDGE_CURVE ( 'NONE', #404, #154, #403, .T. ) ;
#88 = AXIS2_PLACEMENT_3D ( 'NONE', #304, #19, #145 ) ;
#89 = ORIENTED_EDGE ( 'NONE', *, *, #29, .F. ) ;
#90 = PRESENTATION_LAYER_ASSIGNMENT (  '', '', ( #393 ) ) ;
#91 = VERTEX_POINT ( 'NONE', #11 ) ;
#92 = VECTOR ( 'NONE', #379, 1000.000000000000000 ) ;
#93 = EDGE_LOOP ( 'NONE', ( #306, #345, #342, #6 ) ) ;
#94 = DIRECTION ( 'NONE',  ( 0.000000000000000000, 0.000000000000000000, -1.000000000000000000 ) ) ;
#95 =( GEOMETRIC_REPRESENTATION_CONTEXT ( 3 ) GLOBAL_UNCERTAINTY_ASSIGNED_CONTEXT ( ( #194 ) ) GLOBAL_UNIT_ASSIGNED_CONTEXT ( ( #187, #260, #196 ) ) REPRESENTATION_CONTEXT ( 'NONE', 'WORKASPACE' ) );
#96 = ORIENTED_EDGE ( 'NONE', *, *, #193, .F. ) ;
#97 = ORIENTED_EDGE ( 'NONE', *, *, #273, .T. ) ;
#98 = DIRECTION ( 'NONE',  ( 0.000000000000000000, 0.000000000000000000, 1.000000000000000000 ) ) ;
#99 = PLANE ( 'NONE',  #189 ) ;
#100 = DIRECTION ( 'NONE',  ( 1.000000000000000000, 0.000000000000000000, 0.000000000000000000 ) ) ;
#101 = FACE_OUTER_BOUND ( 'NONE', #313, .T. ) ;
#102 = VECTOR ( 'NONE', #38, 1000.000000000000000 ) ;
#103 = DIRECTION ( 'NONE',  ( -2.709963492703652317E-17, -1.000000000000000000, 0.000000000000000000 ) ) ;
#104 = LINE ( 'NONE', #254, #201 ) ;
#105 = EDGE_CURVE ( 'NONE', #404, #165, #257, .T. ) ;
#106 = CARTESIAN_POINT ( 'NONE',  ( 0.000000000000000000, 0.000000000000000000, 0.000000000000000000 ) ) ;
#107 = CIRCLE ( 'NONE', #333, 0.2550000000000000044 ) ;
#108 = CARTESIAN_POINT ( 'NONE',  ( 0.000000000000000000, 0.000000000000000000, -3.690000000000000391 ) ) ;
#109 = ADVANCED_FACE ( 'NONE', ( #359 ), #133, .F. ) ;
#110 = VECTOR ( 'NONE', #171, 1000.000000000000000 ) ;
#111 = DIRECTION ( 'NONE',  ( 1.000000000000000000, -2.709963492703652625E-17, -0.000000000000000000 ) ) ;
#112 =( NAMED_UNIT ( * ) SI_UNIT ( $, .STERADIAN. ) SOLID_ANGLE_UNIT ( ) );
#113 = DIRECTION ( 'NONE',  ( 0.000000000000000000, 0.000000000000000000, 1.000000000000000000 ) ) ;
#114 = VERTEX_POINT ( 'NONE', #137 ) ;
#115 = PRODUCT_DEFINITION ( 'UNKNOWN', '', #406, #266 ) ;
#116 = SURFACE_STYLE_USAGE ( .BOTH. , #300 ) ;
#117 = ORIENTED_EDGE ( 'NONE', *, *, #150, .T. ) ;
#118 = DIRECTION ( 'NONE',  ( 1.000000000000000000, -2.709963492703652625E-17, -0.000000000000000000 ) ) ;
#119 = EDGE_CURVE ( 'NONE', #61, #160, #217, .T. ) ;
#120 = AXIS2_PLACEMENT_3D ( 'NONE', #319, #293, #139 ) ;
#121 = VERTEX_POINT ( 'NONE', #70 ) ;
#122 = ADVANCED_FACE ( 'NONE', ( #251 ), #72, .T. ) ;
#123 = PRODUCT ( 'PE1016-13', 'PE1016-13', '', ( #320 ) ) ;
#124 = AXIS2_PLACEMENT_3D ( 'NONE', #370, #94, #263 ) ;
#125 = ORIENTED_EDGE ( 'NONE', *, *, #348, .T. ) ;
#126 = UNCERTAINTY_MEASURE_WITH_UNIT (LENGTH_MEASURE( 1.000000000000000082E-05 ), #172, 'distance_accuracy_value', 'NONE');
#127 = EDGE_LOOP ( 'NONE', ( #131, #301, #337, #96 ) ) ;
#128 = DIRECTION ( 'NONE',  ( 1.000000000000000000, 0.000000000000000000, 0.000000000000000000 ) ) ;
#129 = PRESENTATION_LAYER_ASSIGNMENT (  '', '', ( #270 ) ) ;
#130 = EDGE_LOOP ( 'NONE', ( #212, #117, #241, #32 ) ) ;
#131 = ORIENTED_EDGE ( 'NONE', *, *, #258, .T. ) ;
#132 = ADVANCED_FACE ( 'NONE', ( #14 ), #224, .F. ) ;
#133 = PLANE ( 'NONE',  #179 ) ;
#134 = PLANE ( 'NONE',  #284 ) ;
#135 = CARTESIAN_POINT ( 'NONE',  ( 0.2500499950009997252, -0.05000000000000004441, -3.690000000000000391 ) ) ;
#136 = ADVANCED_FACE ( 'NONE', ( #321 ), #18, .T. ) ;
#137 = CARTESIAN_POINT ( 'NONE',  ( 0.2500499950009997252, 0.04999999999999991951, -3.690000000000000391 ) ) ;
#138 = AXIS2_PLACEMENT_3D ( 'NONE', #106, #289, #325 ) ;
#139 = DIRECTION ( 'NONE',  ( -1.000000000000000000, 2.167970794162921854E-16, 0.000000000000000000 ) ) ;
#140 = DIRECTION ( 'NONE',  ( 0.000000000000000000, 0.000000000000000000, 1.000000000000000000 ) ) ;
#141 = LINE ( 'NONE', #17, #21 ) ;
#142 = AXIS2_PLACEMENT_3D ( 'NONE', #56, #54, #50 ) ;
#143 = FACE_OUTER_BOUND ( 'NONE', #285, .T. ) ;
#144 = APPLICATION_CONTEXT ( 'automotive_design' ) ;
#145 = DIRECTION ( 'NONE',  ( -1.000000000000000000, 0.000000000000000000, -0.000000000000000000 ) ) ;
#146 = ORIENTED_EDGE ( 'NONE', *, *, #360, .T. ) ;
#147 = CIRCLE ( 'NONE', #244, 0.2550000000000000044 ) ;
#148 = CARTESIAN_POINT ( 'NONE',  ( 0.000000000000000000, 0.000000000000000000, -1.909999999999999920 ) ) ;
#149 = LINE ( 'NONE', #256, #53 ) ;
#150 = EDGE_CURVE ( 'NONE', #310, #61, #295, .T. ) ;
#151 = DIRECTION ( 'NONE',  ( 1.000000000000000000, 0.000000000000000000, 0.000000000000000000 ) ) ;
#152 = AXIS2_PLACEMENT_3D ( 'NONE', #402, #374, #67 ) ;
#153 = ORIENTED_EDGE ( 'NONE', *, *, #348, .F. ) ;
#154 = VERTEX_POINT ( 'NONE', #296 ) ;
#155 = DIRECTION ( 'NONE',  ( -1.000000000000000000, 0.000000000000000000, 0.000000000000000000 ) ) ;
#156 = VERTEX_POINT ( 'NONE', #22 ) ;
#157 = CYLINDRICAL_SURFACE ( 'NONE', #152, 0.2550000000000000044 ) ;
#158 = ADVANCED_FACE ( 'NONE', ( #326 ), #238, .T. ) ;
#159 = CIRCLE ( 'NONE', #352, 0.2550000000000000044 ) ;
#160 = VERTEX_POINT ( 'NONE', #216 ) ;
#161 = LINE ( 'NONE', #376, #3 ) ;
#162 = ORIENTED_EDGE ( 'NONE', *, *, #225, .T. ) ;
#163 = AXIS2_PLACEMENT_3D ( 'NONE', #2, #98, #128 ) ;
#164 = ADVANCED_FACE ( 'NONE', ( #143 ), #302, .T. ) ;
#165 = VERTEX_POINT ( 'NONE', #190 ) ;
#166 = VECTOR ( 'NONE', #12, 1000.000000000000000 ) ;
#167 = CIRCLE ( 'NONE', #261, 0.2550000000000000044 ) ;
#168 = FACE_OUTER_BOUND ( 'NONE', #192, .T. ) ;
#169 = COLOUR_RGB ( '',0.7921568627450980005, 0.8196078431372548767, 0.9333333333333333481 ) ;
#170 = SHAPE_DEFINITION_REPRESENTATION ( #343, #86 ) ;
#171 = DIRECTION ( 'NONE',  ( -0.000000000000000000, -0.000000000000000000, 1.000000000000000000 ) ) ;
#172 =( LENGTH_UNIT ( ) NAMED_UNIT ( * ) SI_UNIT ( .MILLI., .METRE. ) );
#173 = CARTESIAN_POINT ( 'NONE',  ( -0.2550000000000000044, 3.122849337825750543E-17, -1.909999999999999920 ) ) ;
#174 = LINE ( 'NONE', #40, #102 ) ;
#175 = DIRECTION ( 'NONE',  ( -1.000000000000000000, 2.167970794162922100E-16, 0.000000000000000000 ) ) ;
#176 = LINE ( 'NONE', #386, #92 ) ;
#177 = DIRECTION ( 'NONE',  ( 1.000000000000000000, 0.000000000000000000, 0.000000000000000000 ) ) ;
#178 = CARTESIAN_POINT ( 'NONE',  ( 0.2500499950009997252, 0.04999999999999991951, -3.690000000000000391 ) ) ;
#179 = AXIS2_PLACEMENT_3D ( 'NONE', #381, #103, #208 ) ;
#180 = DIRECTION ( 'NONE',  ( 1.000000000000000000, 0.000000000000000000, 0.000000000000000000 ) ) ;
#181 = FILL_AREA_STYLE ('',( #84 ) ) ;
#182 = VECTOR ( 'NONE', #382, 1000.000000000000000 ) ;
#183 = CARTESIAN_POINT ( 'NONE',  ( 0.000000000000000000, 0.000000000000000000, 0.000000000000000000 ) ) ;
#184 = ORIENTED_EDGE ( 'NONE', *, *, #150, .F. ) ;
#185 = EDGE_CURVE ( 'NONE', #156, #165, #336, .T. ) ;
#186 = AXIS2_PLACEMENT_3D ( 'NONE', #198, #60, #100 ) ;
#187 =( LENGTH_UNIT ( ) NAMED_UNIT ( * ) SI_UNIT ( .MILLI., .METRE. ) );
#188 = EDGE_CURVE ( 'NONE', #160, #61, #314, .T. ) ;
#189 = AXIS2_PLACEMENT_3D ( 'NONE', #75, #68, #226 ) ;
#190 = CARTESIAN_POINT ( 'NONE',  ( -0.2500499950009997807, -0.04999999999999996808, -2.420000000000000373 ) ) ;
#191 = ORIENTED_EDGE ( 'NONE', *, *, #228, .F. ) ;
#192 = EDGE_LOOP ( 'NONE', ( #308, #277 ) ) ;
#193 = EDGE_CURVE ( 'NONE', #344, #61, #269, .T. ) ;
#194 = UNCERTAINTY_MEASURE_WITH_UNIT (LENGTH_MEASURE( 1.000000000000000082E-05 ), #187, 'distance_accuracy_value', 'NONE');
#195 = ORIENTED_EDGE ( 'NONE', *, *, #4, .F. ) ;
#196 =( NAMED_UNIT ( * ) SI_UNIT ( $, .STERADIAN. ) SOLID_ANGLE_UNIT ( ) );
#197 = ORIENTED_EDGE ( 'NONE', *, *, #119, .F. ) ;
#198 = CARTESIAN_POINT ( 'NONE',  ( 0.000000000000000000, 0.000000000000000000, -1.909999999999999920 ) ) ;
#199 = ORIENTED_EDGE ( 'NONE', *, *, #377, .T. ) ;
#200 = LINE ( 'NONE', #288, #110 ) ;
#201 = VECTOR ( 'NONE', #290, 1000.000000000000114 ) ;
#202 = DIRECTION ( 'NONE',  ( 0.000000000000000000, 0.000000000000000000, 1.000000000000000000 ) ) ;
#203 = EDGE_CURVE ( 'NONE', #63, #362, #396, .T. ) ;
#204 = DIRECTION ( 'NONE',  ( 0.000000000000000000, 0.000000000000000000, 1.000000000000000000 ) ) ;
#205 = DIRECTION ( 'NONE',  ( 1.000000000000000000, 0.000000000000000000, 0.000000000000000000 ) ) ;
#206 = APPLICATION_PROTOCOL_DEFINITION ( 'draft international standard', 'automotive_design', 1998, #144 ) ;
#207 = CYLINDRICAL_SURFACE ( 'NONE', #287, 0.4550000000000000155 ) ;
#208 = DIRECTION ( 'NONE',  ( 1.000000000000000000, -2.709963492703652317E-17, 0.000000000000000000 ) ) ;
#209 = CARTESIAN_POINT ( 'NONE',  ( 0.000000000000000000, 0.000000000000000000, 0.000000000000000000 ) ) ;
#210 = CARTESIAN_POINT ( 'NONE',  ( 0.000000000000000000, 0.000000000000000000, -2.420000000000000373 ) ) ;
#211 = DIRECTION ( 'NONE',  ( 0.7071067811865483499, 8.659560562354942719E-17, -0.7071067811865466846 ) ) ;
#212 = ORIENTED_EDGE ( 'NONE', *, *, #360, .F. ) ;
#213 = AXIS2_PLACEMENT_3D ( 'NONE', #41, #9, #262 ) ;
#214 = FACE_OUTER_BOUND ( 'NONE', #330, .T. ) ;
#215 = CIRCLE ( 'NONE', #163, 0.4550000000000000155 ) ;
#216 = CARTESIAN_POINT ( 'NONE',  ( -0.4550000000000000155, 5.572142936120455848E-17, -0.3499999999999976463 ) ) ;
#217 = CIRCLE ( 'NONE', #366, 0.4550000000000000155 ) ;
#218 = ORIENTED_EDGE ( 'NONE', *, *, #228, .T. ) ;
#219 = ORIENTED_EDGE ( 'NONE', *, *, #377, .F. ) ;
#220 = ORIENTED_EDGE ( 'NONE', *, *, #58, .T. ) ;
#221 = ORIENTED_EDGE ( 'NONE', *, *, #292, .F. ) ;
#222 = ORIENTED_EDGE ( 'NONE', *, *, #299, .F. ) ;
#223 = CARTESIAN_POINT ( 'NONE',  ( 0.1050000000000013006, 3.429011037612596795E-17, 0.000000000000000000 ) ) ;
#224 = PLANE ( 'NONE',  #120 ) ;
#225 = EDGE_CURVE ( 'NONE', #80, #362, #387, .T. ) ;
#226 = DIRECTION ( 'NONE',  ( -1.000000000000000000, 0.000000000000000000, -0.000000000000000000 ) ) ;
#227 = FILL_AREA_STYLE_COLOUR ( '', #169 ) ;
#228 = EDGE_CURVE ( 'NONE', #324, #114, #25, .T. ) ;
#229 = DIRECTION ( 'NONE',  ( -1.000000000000000000, 0.000000000000000000, 0.000000000000000000 ) ) ;
#230 = SURFACE_STYLE_FILL_AREA ( #45 ) ;
#231 = CARTESIAN_POINT ( 'NONE',  ( 0.000000000000000000, 0.000000000000000000, -3.690000000000000391 ) ) ;
#232 = COLOUR_RGB ( '',0.7921568627450980005, 0.8196078431372548767, 0.9333333333333333481 ) ;
#233 = CARTESIAN_POINT ( 'NONE',  ( 0.000000000000000000, 0.000000000000000000, -1.909999999999999920 ) ) ;
#234 = EDGE_CURVE ( 'NONE', #91, #310, #23, .T. ) ;
#235 = DIRECTION ( 'NONE',  ( -0.000000000000000000, -0.000000000000000000, 1.000000000000000000 ) ) ;
#236 = LINE ( 'NONE', #328, #81 ) ;
#237 = DIRECTION ( 'NONE',  ( -0.000000000000000000, -0.000000000000000000, 1.000000000000000000 ) ) ;
#238 = PLANE ( 'NONE',  #88 ) ;
#239 = CARTESIAN_POINT ( 'NONE',  ( 0.000000000000000000, 0.000000000000000000, -2.420000000000000373 ) ) ;
#240 = AXIS2_PLACEMENT_3D ( 'NONE', #349, #44, #315 ) ;
#241 = ORIENTED_EDGE ( 'NONE', *, *, #188, .F. ) ;
#242 = CARTESIAN_POINT ( 'NONE',  ( -0.4550000000000000155, 5.572142936120455848E-17, -1.909999999999999920 ) ) ;
#243 = EDGE_LOOP ( 'NONE', ( #219, #312 ) ) ;
#244 = AXIS2_PLACEMENT_3D ( 'NONE', #307, #286, #155 ) ;
#245 = ORIENTED_EDGE ( 'NONE', *, *, #203, .T. ) ;
#246 = ORIENTED_EDGE ( 'NONE', *, *, #363, .F. ) ;
#247 = CARTESIAN_POINT ( 'NONE',  ( 0.000000000000000000, 0.000000000000000000, -0.3499999999999976463 ) ) ;
#248 = CARTESIAN_POINT ( 'NONE',  ( 0.2550000000000000044, 0.000000000000000000, -1.909999999999999920 ) ) ;
#249 = ADVANCED_FACE ( 'NONE', ( #214 ), #79, .T. ) ;
#250 = MANIFOLD_SOLID_BREP ( 'Chamfer1', #267 ) ;
#251 = FACE_OUTER_BOUND ( 'NONE', #93, .T. ) ;
#252 = CARTESIAN_POINT ( 'NONE',  ( -0.2500499950009997807, -0.04999999999999996808, -3.690000000000000391 ) ) ;
#253 = CARTESIAN_POINT ( 'NONE',  ( 0.000000000000000000, 0.000000000000000000, 0.000000000000000000 ) ) ;
#254 = CARTESIAN_POINT ( 'NONE',  ( -0.1050000000000013006, 0.000000000000000000, 0.000000000000000000 ) ) ;
#255 = CONICAL_SURFACE ( 'NONE', #311, 0.1050000000000013006, 0.7853981633974495002 ) ;
#256 = CARTESIAN_POINT ( 'NONE',  ( 0.2500499950009997252, -0.05000000000000004441, -2.420000000000000373 ) ) ;
#257 = LINE ( 'NONE', #252, #166 ) ;
#258 = EDGE_CURVE ( 'NONE', #344, #332, #282, .T. ) ;
#259 =( NAMED_UNIT ( * ) PLANE_ANGLE_UNIT ( ) SI_UNIT ( $, .RADIAN. ) );
#260 =( NAMED_UNIT ( * ) PLANE_ANGLE_UNIT ( ) SI_UNIT ( $, .RADIAN. ) );
#261 = AXIS2_PLACEMENT_3D ( 'NONE', #108, #318, #42 ) ;
#262 = DIRECTION ( 'NONE',  ( -1.000000000000000000, 0.000000000000000000, 0.000000000000000000 ) ) ;
#263 = DIRECTION ( 'NONE',  ( -1.000000000000000000, 0.000000000000000000, -0.000000000000000000 ) ) ;
#264 = DIRECTION ( 'NONE',  ( -1.000000000000000000, 0.000000000000000000, 0.000000000000000000 ) ) ;
#265 = CARTESIAN_POINT ( 'NONE',  ( 0.000000000000000000, 0.000000000000000000, -2.420000000000000373 ) ) ;
#266 = PRODUCT_DEFINITION_CONTEXT ( 'detailed design', #13, 'design' ) ;
#267 = CLOSED_SHELL ( 'NONE', ( #136, #305, #341, #158, #122, #52, #164, #249, #10, #132, #109, #334, #392 ) ) ;
#268 = CARTESIAN_POINT ( 'NONE',  ( 0.4550000000000000155, 0.000000000000000000, -1.909999999999999920 ) ) ;
#269 = LINE ( 'NONE', #395, #297 ) ;
#270 = STYLED_ITEM ( 'NONE', ( #331 ), #250 ) ;
#271 = SURFACE_STYLE_FILL_AREA ( #181 ) ;
#272 = MECHANICAL_DESIGN_GEOMETRIC_PRESENTATION_REPRESENTATION (  '', ( #393 ), #322 ) ;
#273 = EDGE_CURVE ( 'NONE', #63, #121, #147, .T. ) ;
#274 = ORIENTED_EDGE ( 'NONE', *, *, #105, .T. ) ;
#275 = FACE_OUTER_BOUND ( 'NONE', #27, .T. ) ;
#276 = AXIS2_PLACEMENT_3D ( 'NONE', #210, #361, #264 ) ;
#277 = ORIENTED_EDGE ( 'NONE', *, *, #185, .T. ) ;
#278 = FACE_OUTER_BOUND ( 'NONE', #85, .T. ) ;
#279 = EDGE_CURVE ( 'NONE', #332, #160, #161, .T. ) ;
#280 = ORIENTED_EDGE ( 'NONE', *, *, #46, .F. ) ;
#281 = DIRECTION ( 'NONE',  ( 0.000000000000000000, 0.000000000000000000, -1.000000000000000000 ) ) ;
#282 = CIRCLE ( 'NONE', #186, 0.4550000000000000155 ) ;
#283 = EDGE_LOOP ( 'NONE', ( #184, #368, #35, #197 ) ) ;
#284 = AXIS2_PLACEMENT_3D ( 'NONE', #233, #202, #351 ) ;
#285 = EDGE_LOOP ( 'NONE', ( #401, #146 ) ) ;
#286 = DIRECTION ( 'NONE',  ( 0.000000000000000000, 0.000000000000000000, -1.000000000000000000 ) ) ;
#287 = AXIS2_PLACEMENT_3D ( 'NONE', #148, #49, #180 ) ;
#288 = CARTESIAN_POINT ( 'NONE',  ( -0.2500499950009997807, 0.04999999999999993339, -3.690000000000000391 ) ) ;
#289 = DIRECTION ( 'NONE',  ( 0.000000000000000000, 0.000000000000000000, 1.000000000000000000 ) ) ;
#290 = DIRECTION ( 'NONE',  ( -0.7071067811865483499, 0.000000000000000000, -0.7071067811865466846 ) ) ;
#291 = CARTESIAN_POINT ( 'NONE',  ( -0.2500499950009997807, 0.04999999999999993339, -2.420000000000000373 ) ) ;
#292 = EDGE_CURVE ( 'NONE', #114, #63, #107, .T. ) ;
#293 = DIRECTION ( 'NONE',  ( 2.167970794162921854E-16, 1.000000000000000000, 0.000000000000000000 ) ) ;
#294 = CARTESIAN_POINT ( 'NONE',  ( -0.2500499950009997807, -0.04999999999999996808, -3.690000000000000391 ) ) ;
#295 = LINE ( 'NONE', #378, #34 ) ;
#296 = CARTESIAN_POINT ( 'NONE',  ( -0.2550000000000000044, 3.122849337825750543E-17, -3.690000000000000391 ) ) ;
#297 = VECTOR ( 'NONE', #113, 1000.000000000000000 ) ;
#298 = ORIENTED_EDGE ( 'NONE', *, *, #203, .F. ) ;
#299 = EDGE_CURVE ( 'NONE', #332, #344, #215, .T. ) ;
#300 = SURFACE_SIDE_STYLE ('',( #271 ) ) ;
#301 = ORIENTED_EDGE ( 'NONE', *, *, #279, .T. ) ;
#302 = PLANE ( 'NONE',  #69 ) ;
#303 = AXIS2_PLACEMENT_3D ( 'NONE', #239, #237, #77 ) ;
#304 = CARTESIAN_POINT ( 'NONE',  ( 0.000000000000000000, 0.000000000000000000, -2.420000000000000373 ) ) ;
#305 = ADVANCED_FACE ( 'NONE', ( #275 ), #157, .T. ) ;
#306 = ORIENTED_EDGE ( 'NONE', *, *, #279, .F. ) ;
#307 = CARTESIAN_POINT ( 'NONE',  ( 0.000000000000000000, 0.000000000000000000, -3.690000000000000391 ) ) ;
#308 = ORIENTED_EDGE ( 'NONE', *, *, #367, .F. ) ;
#309 = DIRECTION ( 'NONE',  ( -1.000000000000000000, 0.000000000000000000, 0.000000000000000000 ) ) ;
#310 = VERTEX_POINT ( 'NONE', #223 ) ;
#311 = AXIS2_PLACEMENT_3D ( 'NONE', #253, #43, #391 ) ;
#312 = ORIENTED_EDGE ( 'NONE', *, *, #225, .F. ) ;
#313 = EDGE_LOOP ( 'NONE', ( #335, #222 ) ) ;
#314 = CIRCLE ( 'NONE', #142, 0.4550000000000000155 ) ;
#315 = DIRECTION ( 'NONE',  ( -1.000000000000000000, 0.000000000000000000, 0.000000000000000000 ) ) ;
#316 = DIRECTION ( 'NONE',  ( 0.000000000000000000, 0.000000000000000000, -1.000000000000000000 ) ) ;
#317 = LINE ( 'NONE', #135, #182 ) ;
#318 = DIRECTION ( 'NONE',  ( 0.000000000000000000, 0.000000000000000000, -1.000000000000000000 ) ) ;
#319 = CARTESIAN_POINT ( 'NONE',  ( 0.2500499950009997252, -0.05000000000000004441, -3.690000000000000391 ) ) ;
#320 = PRODUCT_CONTEXT ( 'NONE', #144, 'mechanical' ) ;
#321 = FACE_OUTER_BOUND ( 'NONE', #130, .T. ) ;
#322 =( GEOMETRIC_REPRESENTATION_CONTEXT ( 3 ) GLOBAL_UNCERTAINTY_ASSIGNED_CONTEXT ( ( #371 ) ) GLOBAL_UNIT_ASSIGNED_CONTEXT ( ( #388, #385, #73 ) ) REPRESENTATION_CONTEXT ( 'NONE', 'WORKASPACE' ) );
#323 = DIRECTION ( 'NONE',  ( 0.000000000000000000, 0.000000000000000000, 1.000000000000000000 ) ) ;
#324 = VERTEX_POINT ( 'NONE', #347 ) ;
#325 = DIRECTION ( 'NONE',  ( 1.000000000000000000, 0.000000000000000000, 0.000000000000000000 ) ) ;
#326 = FACE_OUTER_BOUND ( 'NONE', #59, .T. ) ;
#327 = VERTEX_POINT ( 'NONE', #338 ) ;
#328 = CARTESIAN_POINT ( 'NONE',  ( 0.2500499950009997252, 0.04999999999999991951, -3.690000000000000391 ) ) ;
#329 = DIRECTION ( 'NONE',  ( 1.000000000000000000, 0.000000000000000000, -0.000000000000000000 ) ) ;
#330 = EDGE_LOOP ( 'NONE', ( #280, #373, #274, #66, #195, #83, #245, #199 ) ) ;
#331 = PRESENTATION_STYLE_ASSIGNMENT (( #116 ) ) ;
#332 = VERTEX_POINT ( 'NONE', #242 ) ;
#333 = AXIS2_PLACEMENT_3D ( 'NONE', #7, #281, #309 ) ;
#334 = ADVANCED_FACE ( 'NONE', ( #278 ), #405, .T. ) ;
#335 = ORIENTED_EDGE ( 'NONE', *, *, #258, .F. ) ;
#336 = CIRCLE ( 'NONE', #276, 0.2550000000000000044 ) ;
#337 = ORIENTED_EDGE ( 'NONE', *, *, #188, .T. ) ;
#338 = CARTESIAN_POINT ( 'NONE',  ( 0.2500499950009997807, 0.04999999999999991951, -2.420000000000000373 ) ) ;
#339 = CIRCLE ( 'NONE', #383, 0.1050000000000013006 ) ;
#340 = DIRECTION ( 'NONE',  ( -0.000000000000000000, -0.000000000000000000, 1.000000000000000000 ) ) ;
#341 = ADVANCED_FACE ( 'NONE', ( #394 ), #207, .T. ) ;
#342 = ORIENTED_EDGE ( 'NONE', *, *, #193, .T. ) ;
#343 = PRODUCT_DEFINITION_SHAPE ( 'NONE', 'NONE',  #115 ) ;
#344 = VERTEX_POINT ( 'NONE', #268 ) ;
#345 = ORIENTED_EDGE ( 'NONE', *, *, #299, .T. ) ;
#346 = ORIENTED_EDGE ( 'NONE', *, *, #399, .F. ) ;
#347 = CARTESIAN_POINT ( 'NONE',  ( -0.2500499950009997807, 0.04999999999999993339, -3.690000000000000391 ) ) ;
#348 = EDGE_CURVE ( 'NONE', #114, #327, #236, .T. ) ;
#349 = CARTESIAN_POINT ( 'NONE',  ( 0.000000000000000000, 0.000000000000000000, 0.000000000000000000 ) ) ;
#350 = VECTOR ( 'NONE', #235, 1000.000000000000000 ) ;
#351 = DIRECTION ( 'NONE',  ( 1.000000000000000000, 0.000000000000000000, -0.000000000000000000 ) ) ;
#352 = AXIS2_PLACEMENT_3D ( 'NONE', #265, #57, #33 ) ;
#353 = DIRECTION ( 'NONE',  ( 1.000000000000000000, 0.000000000000000000, 0.000000000000000000 ) ) ;
#354 = EDGE_CURVE ( 'NONE', #20, #327, #159, .T. ) ;
#355 = PRESENTATION_STYLE_ASSIGNMENT (( #380 ) ) ;
#356 = DIRECTION ( 'NONE',  ( 0.000000000000000000, 0.000000000000000000, -1.000000000000000000 ) ) ;
#357 = MECHANICAL_DESIGN_GEOMETRIC_PRESENTATION_REPRESENTATION (  '', ( #270 ), #95 ) ;
#358 = FACE_OUTER_BOUND ( 'NONE', #283, .T. ) ;
#359 = FACE_OUTER_BOUND ( 'NONE', #369, .T. ) ;
#360 = EDGE_CURVE ( 'NONE', #310, #91, #339, .T. ) ;
#361 = DIRECTION ( 'NONE',  ( 0.000000000000000000, 0.000000000000000000, -1.000000000000000000 ) ) ;
#362 = VERTEX_POINT ( 'NONE', #248 ) ;
#363 = EDGE_CURVE ( 'NONE', #20, #327, #141, .T. ) ;
#364 = DIRECTION ( 'NONE',  ( 0.000000000000000000, 0.000000000000000000, -1.000000000000000000 ) ) ;
#365 = ORIENTED_EDGE ( 'NONE', *, *, #46, .T. ) ;
#366 = AXIS2_PLACEMENT_3D ( 'NONE', #247, #356, #353 ) ;
#367 = EDGE_CURVE ( 'NONE', #156, #165, #149, .T. ) ;
#368 = ORIENTED_EDGE ( 'NONE', *, *, #234, .F. ) ;
#369 = EDGE_LOOP ( 'NONE', ( #78, #153, #191, #220 ) ) ;
#370 = CARTESIAN_POINT ( 'NONE',  ( 0.000000000000000000, 0.000000000000000000, -3.690000000000000391 ) ) ;
#371 = UNCERTAINTY_MEASURE_WITH_UNIT (LENGTH_MEASURE( 1.000000000000000082E-05 ), #388, 'distance_accuracy_value', 'NONE');
#372 = AXIS2_PLACEMENT_3D ( 'NONE', #183, #140, #151 ) ;
#373 = ORIENTED_EDGE ( 'NONE', *, *, #87, .F. ) ;
#374 = DIRECTION ( 'NONE',  ( -0.000000000000000000, -0.000000000000000000, 1.000000000000000000 ) ) ;
#375 = ORIENTED_EDGE ( 'NONE', *, *, #58, .F. ) ;
#376 = CARTESIAN_POINT ( 'NONE',  ( -0.4550000000000000155, 5.572142936120455848E-17, -1.909999999999999920 ) ) ;
#377 = EDGE_CURVE ( 'NONE', #362, #80, #65, .T. ) ;
#378 = CARTESIAN_POINT ( 'NONE',  ( 0.1050000000000013006, 1.285879139104736817E-17, 0.000000000000000000 ) ) ;
#379 = DIRECTION ( 'NONE',  ( -0.000000000000000000, -0.000000000000000000, 1.000000000000000000 ) ) ;
#380 = SURFACE_STYLE_USAGE ( .BOTH. , #71 ) ;
#381 = CARTESIAN_POINT ( 'NONE',  ( 0.2500499950009997252, 0.04999999999999991951, -3.690000000000000391 ) ) ;
#382 = DIRECTION ( 'NONE',  ( -1.000000000000000000, 2.167970794162922100E-16, 0.000000000000000000 ) ) ;
#383 = AXIS2_PLACEMENT_3D ( 'NONE', #209, #323, #177 ) ;
#384 = CARTESIAN_POINT ( 'NONE',  ( 0.2550000000000000044, 0.000000000000000000, -3.690000000000000391 ) ) ;
#385 =( NAMED_UNIT ( * ) PLANE_ANGLE_UNIT ( ) SI_UNIT ( $, .RADIAN. ) );
#386 = CARTESIAN_POINT ( 'NONE',  ( 0.2500499950009997252, -0.05000000000000004441, -3.690000000000000391 ) ) ;
#387 = CIRCLE ( 'NONE', #39, 0.2550000000000000044 ) ;
#388 =( LENGTH_UNIT ( ) NAMED_UNIT ( * ) SI_UNIT ( .MILLI., .METRE. ) );
#389 = AXIS2_PLACEMENT_3D ( 'NONE', #74, #204, #205 ) ;
#390 = CARTESIAN_POINT ( 'NONE',  ( 0.000000000000000000, 0.000000000000000000, -1.909999999999999920 ) ) ;
#391 = DIRECTION ( 'NONE',  ( -1.000000000000000000, 0.000000000000000000, 0.000000000000000000 ) ) ;
#392 = ADVANCED_FACE ( 'NONE', ( #358 ), #255, .T. ) ;
#393 = STYLED_ITEM ( 'NONE', ( #355 ), #86 ) ;
#394 = FACE_OUTER_BOUND ( 'NONE', #127, .T. ) ;
#395 = CARTESIAN_POINT ( 'NONE',  ( 0.4550000000000000155, 0.000000000000000000, -1.909999999999999920 ) ) ;
#396 = LINE ( 'NONE', #47, #350 ) ;
#397 = ORIENTED_EDGE ( 'NONE', *, *, #354, .T. ) ;
#398 = DIRECTION ( 'NONE',  ( 0.000000000000000000, 0.000000000000000000, 1.000000000000000000 ) ) ;
#399 = EDGE_CURVE ( 'NONE', #121, #404, #317, .T. ) ;
#400 = ORIENTED_EDGE ( 'NONE', *, *, #87, .T. ) ;
#401 = ORIENTED_EDGE ( 'NONE', *, *, #234, .T. ) ;
#402 = CARTESIAN_POINT ( 'NONE',  ( 0.000000000000000000, 0.000000000000000000, -2.420000000000000373 ) ) ;
#403 = CIRCLE ( 'NONE', #48, 0.2550000000000000044 ) ;
#404 = VERTEX_POINT ( 'NONE', #294 ) ;
#405 = PLANE ( 'NONE',  #124 ) ;
#406 = PRODUCT_DEFINITION_FORMATION_WITH_SPECIFIED_SOURCE ( 'ANY', '', #123, .NOT_KNOWN. ) ;
ENDSEC;
END-ISO-10303-21;
