ISO-10303-21;
HEADER;
FILE_DESCRIPTION (( 'STEP AP214' ),
    '1' );
FILE_NAME ('PE1016-1.step',
    '2021-04-21T15:51:40',
    ( '' ),
    ( '' ),
    'SwSTEP 2.0',
    'SolidWorks 2020',
    '' );
FILE_SCHEMA (( 'AUTOMOTIVE_DESIGN' ));
ENDSEC;

DATA;
#1 = PLANE ( 'NONE',  #60 ) ;
#2 = ORIENTED_EDGE ( 'NONE', *, *, #69, .F. ) ;
#3 = EDGE_CURVE ( 'NONE', #15, #230, #293, .T. ) ;
#4 = FACE_OUTER_BOUND ( 'NONE', #188, .T. ) ;
#5 = CIRCLE ( 'NONE', #174, 0.1150000000000000883 ) ;
#6 = SPHERICAL_SURFACE ( 'NONE', #47, 0.1150000000000000050 ) ;
#7 = ORIENTED_EDGE ( 'NONE', *, *, #56, .T. ) ;
#8 = PRESENTATION_LAYER_ASSIGNMENT (  '', '', ( #231 ) ) ;
#9 = ADVANCED_FACE ( 'NONE', ( #237 ), #129, .T. ) ;
#10 = LINE ( 'NONE', #261, #209 ) ;
#11 = ORIENTED_EDGE ( 'NONE', *, *, #67, .T. ) ;
#12 = DIRECTION ( 'NONE',  ( -1.000000000000000000, 0.000000000000000000, 0.000000000000000000 ) ) ;
#13 = FACE_OUTER_BOUND ( 'NONE', #183, .T. ) ;
#14 = MECHANICAL_DESIGN_GEOMETRIC_PRESENTATION_REPRESENTATION (  '', ( #74 ), #175 ) ;
#15 = VERTEX_POINT ( 'NONE', #243 ) ;
#16 = CARTESIAN_POINT ( 'NONE',  ( -0.1150000000000000883, 1.408343819019457384E-17, -1.649999999999999911 ) ) ;
#17 = DIRECTION ( 'NONE',  ( 1.000000000000000000, 0.000000000000000000, -0.000000000000000000 ) ) ;
#18 = DIRECTION ( 'NONE',  ( -0.000000000000000000, -0.000000000000000000, 1.000000000000000000 ) ) ;
#19 = ORIENTED_EDGE ( 'NONE', *, *, #89, .F. ) ;
#20 = AXIS2_PLACEMENT_3D ( 'NONE', #127, #172, #271 ) ;
#21 = UNCERTAINTY_MEASURE_WITH_UNIT (LENGTH_MEASURE( 1.000000000000000082E-05 ), #124, 'distance_accuracy_value', 'NONE');
#22 = AXIS2_PLACEMENT_3D ( 'NONE', #160, #211, #286 ) ;
#23 = CARTESIAN_POINT ( 'NONE',  ( 0.000000000000000000, 0.000000000000000000, 0.000000000000000000 ) ) ;
#24 = DIRECTION ( 'NONE',  ( -1.000000000000000000, 2.513933591246015121E-16, 0.000000000000000000 ) ) ;
#25 = VECTOR ( 'NONE', #111, 1000.000000000000000 ) ;
#26 = VECTOR ( 'NONE', #18, 1000.000000000000000 ) ;
#27 = LINE ( 'NONE', #155, #139 ) ;
#28 = EDGE_LOOP ( 'NONE', ( #61, #239, #101, #180, #171, #34, #11, #103 ) ) ;
#29 = DIRECTION ( 'NONE',  ( -1.000000000000000000, 0.000000000000000000, 0.000000000000000000 ) ) ;
#30 = MECHANICAL_DESIGN_GEOMETRIC_PRESENTATION_REPRESENTATION (  '', ( #231 ), #109 ) ;
#31 = ORIENTED_EDGE ( 'NONE', *, *, #121, .F. ) ;
#32 = DIRECTION ( 'NONE',  ( 1.000000000000000000, -0.000000000000000000, -0.000000000000000000 ) ) ;
#33 = ORIENTED_EDGE ( 'NONE', *, *, #56, .F. ) ;
#34 = ORIENTED_EDGE ( 'NONE', *, *, #3, .T. ) ;
#35 = SURFACE_STYLE_USAGE ( .BOTH. , #66 ) ;
#36 = VERTEX_POINT ( 'NONE', #85 ) ;
#37 = CARTESIAN_POINT ( 'NONE',  ( 0.000000000000000000, 0.000000000000000000, -1.270000000000000018 ) ) ;
#38 = DIRECTION ( 'NONE',  ( -1.000000000000000000, 0.000000000000000000, -0.000000000000000000 ) ) ;
#39 = CARTESIAN_POINT ( 'NONE',  ( 0.000000000000000000, 0.000000000000000000, -1.649999999999999911 ) ) ;
#40 = ADVANCED_FACE ( 'NONE', ( #295 ), #108, .F. ) ;
#41 = DIRECTION ( 'NONE',  ( -1.000000000000000000, 0.000000000000000000, 0.000000000000000000 ) ) ;
#42 = ADVANCED_BREP_SHAPE_REPRESENTATION ( 'PE1016-1', ( #113, #203 ), #224 ) ;
#43 = CARTESIAN_POINT ( 'NONE',  ( -0.1078192932642391966, 0.04000000000000003553, -1.649999999999999911 ) ) ;
#44 = EDGE_CURVE ( 'NONE', #50, #15, #150, .T. ) ;
#45 = VECTOR ( 'NONE', #232, 1000.000000000000000 ) ;
#46 = EDGE_CURVE ( 'NONE', #71, #50, #276, .T. ) ;
#47 = AXIS2_PLACEMENT_3D ( 'NONE', #100, #102, #149 ) ;
#48 = CARTESIAN_POINT ( 'NONE',  ( 0.1078192932642391966, 0.04000000000000003553, -1.270000000000000018 ) ) ;
#49 = DIRECTION ( 'NONE',  ( 1.000000000000000000, 0.000000000000000000, 0.000000000000000000 ) ) ;
#50 = VERTEX_POINT ( 'NONE', #110 ) ;
#51 = EDGE_CURVE ( 'NONE', #190, #71, #151, .T. ) ;
#52 = DIRECTION ( 'NONE',  ( 0.000000000000000000, -1.000000000000000000, -0.000000000000000000 ) ) ;
#53 = DIRECTION ( 'NONE',  ( 2.513933591246015121E-16, 1.000000000000000000, 0.000000000000000000 ) ) ;
#54 = ORIENTED_EDGE ( 'NONE', *, *, #161, .T. ) ;
#55 = DIRECTION ( 'NONE',  ( 0.000000000000000000, 0.000000000000000000, 1.000000000000000000 ) ) ;
#56 = EDGE_CURVE ( 'NONE', #84, #145, #191, .T. ) ;
#57 = CARTESIAN_POINT ( 'NONE',  ( -0.1078192932642391966, -0.04000000000000003553, -1.270000000000000018 ) ) ;
#58 = EDGE_LOOP ( 'NONE', ( #123, #2, #107, #258 ) ) ;
#59 = LINE ( 'NONE', #197, #184 ) ;
#60 = AXIS2_PLACEMENT_3D ( 'NONE', #179, #55, #279 ) ;
#61 = ORIENTED_EDGE ( 'NONE', *, *, #46, .F. ) ;
#62 =( NAMED_UNIT ( * ) PLANE_ANGLE_UNIT ( ) SI_UNIT ( $, .RADIAN. ) );
#63 = SURFACE_STYLE_FILL_AREA ( #269 ) ;
#64 = DIRECTION ( 'NONE',  ( 1.000000000000000000, 0.000000000000000000, 0.000000000000000000 ) ) ;
#65 = LINE ( 'NONE', #81, #128 ) ;
#66 = SURFACE_SIDE_STYLE ('',( #195 ) ) ;
#67 = EDGE_CURVE ( 'NONE', #230, #119, #280, .T. ) ;
#68 =( LENGTH_UNIT ( ) NAMED_UNIT ( * ) SI_UNIT ( .MILLI., .METRE. ) );
#69 = EDGE_CURVE ( 'NONE', #190, #282, #65, .T. ) ;
#70 = UNCERTAINTY_MEASURE_WITH_UNIT (LENGTH_MEASURE( 1.000000000000000082E-05 ), #68, 'distance_accuracy_value', 'NONE');
#71 = VERTEX_POINT ( 'NONE', #16 ) ;
#72 = DIRECTION ( 'NONE',  ( 0.000000000000000000, 0.000000000000000000, 1.000000000000000000 ) ) ;
#73 = ORIENTED_EDGE ( 'NONE', *, *, #99, .T. ) ;
#74 = STYLED_ITEM ( 'NONE', ( #240 ), #113 ) ;
#75 = CARTESIAN_POINT ( 'NONE',  ( 0.000000000000000000, 0.000000000000000000, -1.270000000000000018 ) ) ;
#76 = ORIENTED_EDGE ( 'NONE', *, *, #69, .T. ) ;
#77 = CARTESIAN_POINT ( 'NONE',  ( 0.000000000000000000, 0.000000000000000000, -1.649999999999999911 ) ) ;
#78 = ORIENTED_EDGE ( 'NONE', *, *, #181, .F. ) ;
#79 =( LENGTH_UNIT ( ) NAMED_UNIT ( * ) SI_UNIT ( .MILLI., .METRE. ) );
#80 = ORIENTED_EDGE ( 'NONE', *, *, #51, .F. ) ;
#81 = CARTESIAN_POINT ( 'NONE',  ( -0.1078192932642392105, -0.04000000000000003553, -1.649999999999999911 ) ) ;
#82 = AXIS2_PLACEMENT_3D ( 'NONE', #229, #95, #140 ) ;
#83 = SPHERICAL_SURFACE ( 'NONE', #22, 0.1150000000000000050 ) ;
#84 = VERTEX_POINT ( 'NONE', #114 ) ;
#85 = CARTESIAN_POINT ( 'NONE',  ( 0.1150000000000000883, 0.000000000000000000, -1.649999999999999911 ) ) ;
#86 = EDGE_CURVE ( 'NONE', #145, #285, #296, .T. ) ;
#87 = DIRECTION ( 'NONE',  ( 1.000000000000000000, -0.000000000000000000, -0.000000000000000000 ) ) ;
#88 = DIRECTION ( 'NONE',  ( 0.000000000000000000, 0.000000000000000000, -1.000000000000000000 ) ) ;
#89 = EDGE_CURVE ( 'NONE', #202, #282, #245, .T. ) ;
#90 = PRODUCT_DEFINITION_SHAPE ( 'NONE', 'NONE',  #154 ) ;
#91 = PRESENTATION_STYLE_ASSIGNMENT (( #250 ) ) ;
#92 = VECTOR ( 'NONE', #131, 1000.000000000000000 ) ;
#93 = CLOSED_SHELL ( 'NONE', ( #259, #9, #40, #177, #135, #207, #234, #287, #266 ) ) ;
#94 = AXIS2_PLACEMENT_3D ( 'NONE', #75, #251, #49 ) ;
#95 = DIRECTION ( 'NONE',  ( 0.000000000000000000, -1.000000000000000000, 0.000000000000000000 ) ) ;
#96 = EDGE_LOOP ( 'NONE', ( #31, #162 ) ) ;
#97 = DIRECTION ( 'NONE',  ( 0.000000000000000000, 0.000000000000000000, -1.000000000000000000 ) ) ;
#98 = FACE_OUTER_BOUND ( 'NONE', #96, .T. ) ;
#99 = EDGE_CURVE ( 'NONE', #50, #119, #166, .T. ) ;
#100 = CARTESIAN_POINT ( 'NONE',  ( 0.000000000000000000, 0.000000000000000000, -0.1150000000000000883 ) ) ;
#101 = ORIENTED_EDGE ( 'NONE', *, *, #294, .T. ) ;
#102 = DIRECTION ( 'NONE',  ( 0.000000000000000000, 1.000000000000000000, 0.000000000000000000 ) ) ;
#103 = ORIENTED_EDGE ( 'NONE', *, *, #99, .F. ) ;
#104 = DIRECTION ( 'NONE',  ( -0.000000000000000000, -0.000000000000000000, -1.000000000000000000 ) ) ;
#105 = AXIS2_PLACEMENT_3D ( 'NONE', #77, #182, #283 ) ;
#106 =( NAMED_UNIT ( * ) PLANE_ANGLE_UNIT ( ) SI_UNIT ( $, .RADIAN. ) );
#107 = ORIENTED_EDGE ( 'NONE', *, *, #249, .F. ) ;
#108 = PLANE ( 'NONE',  #291 ) ;
#109 =( GEOMETRIC_REPRESENTATION_CONTEXT ( 3 ) GLOBAL_UNCERTAINTY_ASSIGNED_CONTEXT ( ( #70 ) ) GLOBAL_UNIT_ASSIGNED_CONTEXT ( ( #68, #298, #222 ) ) REPRESENTATION_CONTEXT ( 'NONE', 'WORKASPACE' ) );
#110 = CARTESIAN_POINT ( 'NONE',  ( -0.1078192932642391966, 0.04000000000000003553, -1.649999999999999911 ) ) ;
#111 = DIRECTION ( 'NONE',  ( -0.000000000000000000, -0.000000000000000000, 1.000000000000000000 ) ) ;
#112 = EDGE_CURVE ( 'NONE', #36, #84, #59, .T. ) ;
#113 = MANIFOLD_SOLID_BREP ( 'Fillet1', #93 ) ;
#114 = CARTESIAN_POINT ( 'NONE',  ( 0.1150000000000000883, 0.000000000000000000, -0.1150000000000000883 ) ) ;
#115 = AXIS2_PLACEMENT_3D ( 'NONE', #270, #88, #12 ) ;
#116 = EDGE_CURVE ( 'NONE', #36, #262, #199, .T. ) ;
#117 = FACE_OUTER_BOUND ( 'NONE', #254, .T. ) ;
#118 = CARTESIAN_POINT ( 'NONE',  ( -0.1150000000000000883, 1.408343819019457384E-17, -0.1150000000000000883 ) ) ;
#119 = VERTEX_POINT ( 'NONE', #227 ) ;
#120 = ORIENTED_EDGE ( 'NONE', *, *, #181, .T. ) ;
#121 = EDGE_CURVE ( 'NONE', #119, #230, #27, .T. ) ;
#122 = PLANE ( 'NONE',  #264 ) ;
#123 = ORIENTED_EDGE ( 'NONE', *, *, #89, .T. ) ;
#124 =( LENGTH_UNIT ( ) NAMED_UNIT ( * ) SI_UNIT ( .MILLI., .METRE. ) );
#125 = DIRECTION ( 'NONE',  ( 1.000000000000000000, 0.000000000000000000, 0.000000000000000000 ) ) ;
#126 = ORIENTED_EDGE ( 'NONE', *, *, #44, .F. ) ;
#127 = CARTESIAN_POINT ( 'NONE',  ( 0.000000000000000000, 0.000000000000000000, -1.270000000000000018 ) ) ;
#128 = VECTOR ( 'NONE', #163, 1000.000000000000000 ) ;
#129 = CYLINDRICAL_SURFACE ( 'NONE', #223, 0.1150000000000000883 ) ;
#130 = PRODUCT_DEFINITION_CONTEXT ( 'detailed design', #132, 'design' ) ;
#131 = DIRECTION ( 'NONE',  ( -1.000000000000000000, 2.513933591246015121E-16, 0.000000000000000000 ) ) ;
#132 = APPLICATION_CONTEXT ( 'automotive_design' ) ;
#133 = FILL_AREA_STYLE_COLOUR ( '', #214 ) ;
#134 = VECTOR ( 'NONE', #301, 1000.000000000000000 ) ;
#135 = ADVANCED_FACE ( 'NONE', ( #117 ), #253, .T. ) ;
#136 = UNCERTAINTY_MEASURE_WITH_UNIT (LENGTH_MEASURE( 1.000000000000000082E-05 ), #79, 'distance_accuracy_value', 'NONE');
#137 = APPLICATION_PROTOCOL_DEFINITION ( 'draft international standard', 'automotive_design', 1998, #132 ) ;
#138 = ORIENTED_EDGE ( 'NONE', *, *, #116, .T. ) ;
#139 = VECTOR ( 'NONE', #32, 1000.000000000000000 ) ;
#140 = DIRECTION ( 'NONE',  ( 0.000000000000000000, 0.000000000000000000, -1.000000000000000000 ) ) ;
#141 = PRODUCT_DEFINITION_FORMATION_WITH_SPECIFIED_SOURCE ( 'ANY', '', #218, .NOT_KNOWN. ) ;
#142 = CARTESIAN_POINT ( 'NONE',  ( 0.1078192932642391827, -0.04000000000000009104, -1.649999999999999911 ) ) ;
#143 = DIRECTION ( 'NONE',  ( 0.000000000000000000, 0.000000000000000000, -1.000000000000000000 ) ) ;
#144 = DIRECTION ( 'NONE',  ( -0.000000000000000000, -0.000000000000000000, -1.000000000000000000 ) ) ;
#145 = VERTEX_POINT ( 'NONE', #118 ) ;
#146 = EDGE_CURVE ( 'NONE', #71, #145, #159, .T. ) ;
#147 = DIRECTION ( 'NONE',  ( -0.000000000000000000, -0.000000000000000000, 1.000000000000000000 ) ) ;
#148 = ORIENTED_EDGE ( 'NONE', *, *, #272, .F. ) ;
#149 = DIRECTION ( 'NONE',  ( 1.000000000000000000, 0.000000000000000000, 0.000000000000000000 ) ) ;
#150 = LINE ( 'NONE', #219, #152 ) ;
#151 = CIRCLE ( 'NONE', #226, 0.1150000000000000883 ) ;
#152 = VECTOR ( 'NONE', #87, 1000.000000000000000 ) ;
#153 = DIRECTION ( 'NONE',  ( -1.000000000000000000, 1.224646799147353207E-16, 0.000000000000000000 ) ) ;
#154 = PRODUCT_DEFINITION ( 'UNKNOWN', '', #141, #130 ) ;
#155 = CARTESIAN_POINT ( 'NONE',  ( 0.1078192932642391966, 0.04000000000000003553, -1.270000000000000018 ) ) ;
#156 = CARTESIAN_POINT ( 'NONE',  ( -0.1078192932642392105, -0.04000000000000003553, -1.649999999999999911 ) ) ;
#157 = PLANE ( 'NONE',  #167 ) ;
#158 = ORIENTED_EDGE ( 'NONE', *, *, #3, .F. ) ;
#159 = LINE ( 'NONE', #284, #134 ) ;
#160 = CARTESIAN_POINT ( 'NONE',  ( 0.000000000000000000, 0.000000000000000000, -0.1150000000000000883 ) ) ;
#161 = EDGE_CURVE ( 'NONE', #84, #285, #201, .T. ) ;
#162 = ORIENTED_EDGE ( 'NONE', *, *, #67, .F. ) ;
#163 = DIRECTION ( 'NONE',  ( -0.000000000000000000, -0.000000000000000000, 1.000000000000000000 ) ) ;
#164 = DIRECTION ( 'NONE',  ( 0.000000000000000000, 0.000000000000000000, -1.000000000000000000 ) ) ;
#165 = ORIENTED_EDGE ( 'NONE', *, *, #161, .F. ) ;
#166 = LINE ( 'NONE', #43, #26 ) ;
#167 = AXIS2_PLACEMENT_3D ( 'NONE', #257, #53, #24 ) ;
#168 =( NAMED_UNIT ( * ) SI_UNIT ( $, .STERADIAN. ) SOLID_ANGLE_UNIT ( ) );
#169 = ORIENTED_EDGE ( 'NONE', *, *, #51, .T. ) ;
#170 = FILL_AREA_STYLE_COLOUR ( '', #273 ) ;
#171 = ORIENTED_EDGE ( 'NONE', *, *, #220, .F. ) ;
#172 = DIRECTION ( 'NONE',  ( 0.000000000000000000, 0.000000000000000000, 1.000000000000000000 ) ) ;
#173 = DIRECTION ( 'NONE',  ( 0.000000000000000000, 0.000000000000000000, 1.000000000000000000 ) ) ;
#174 = AXIS2_PLACEMENT_3D ( 'NONE', #235, #144, #125 ) ;
#175 =( GEOMETRIC_REPRESENTATION_CONTEXT ( 3 ) GLOBAL_UNCERTAINTY_ASSIGNED_CONTEXT ( ( #21 ) ) GLOBAL_UNIT_ASSIGNED_CONTEXT ( ( #124, #62, #260 ) ) REPRESENTATION_CONTEXT ( 'NONE', 'WORKASPACE' ) );
#176 = DIRECTION ( 'NONE',  ( 0.000000000000000000, 0.000000000000000000, 1.000000000000000000 ) ) ;
#177 = ADVANCED_FACE ( 'NONE', ( #98 ), #1, .F. ) ;
#178 = CIRCLE ( 'NONE', #300, 0.1150000000000000883 ) ;
#179 = CARTESIAN_POINT ( 'NONE',  ( 0.000000000000000000, 0.000000000000000000, -1.270000000000000018 ) ) ;
#180 = ORIENTED_EDGE ( 'NONE', *, *, #112, .F. ) ;
#181 = EDGE_CURVE ( 'NONE', #282, #202, #221, .T. ) ;
#182 = DIRECTION ( 'NONE',  ( 0.000000000000000000, 0.000000000000000000, -1.000000000000000000 ) ) ;
#183 = EDGE_LOOP ( 'NONE', ( #169, #228, #288, #265, #138, #302 ) ) ;
#184 = VECTOR ( 'NONE', #173, 1000.000000000000000 ) ;
#185 = AXIS2_PLACEMENT_3D ( 'NONE', #241, #164, #38 ) ;
#186 = ORIENTED_EDGE ( 'NONE', *, *, #294, .F. ) ;
#187 = CARTESIAN_POINT ( 'NONE',  ( 0.000000000000000000, 0.000000000000000000, -1.270000000000000018 ) ) ;
#188 = EDGE_LOOP ( 'NONE', ( #236, #158, #126, #73 ) ) ;
#189 = PLANE ( 'NONE',  #185 ) ;
#190 = VERTEX_POINT ( 'NONE', #156 ) ;
#191 = CIRCLE ( 'NONE', #242, 0.1150000000000000883 ) ;
#192 = DIRECTION ( 'NONE',  ( 0.000000000000000000, 0.000000000000000000, 1.000000000000000000 ) ) ;
#193 = ORIENTED_EDGE ( 'NONE', *, *, #116, .F. ) ;
#194 = APPLICATION_PROTOCOL_DEFINITION ( 'draft international standard', 'automotive_design', 1998, #244 ) ;
#195 = SURFACE_STYLE_FILL_AREA ( #274 ) ;
#196 = DIRECTION ( 'NONE',  ( 0.000000000000000000, 0.000000000000000000, -1.000000000000000000 ) ) ;
#197 = CARTESIAN_POINT ( 'NONE',  ( 0.1150000000000000883, 0.000000000000000000, -1.270000000000000018 ) ) ;
#198 = CARTESIAN_POINT ( 'NONE',  ( 0.000000000000000000, 0.000000000000000000, -0.1150000000000000883 ) ) ;
#199 = CIRCLE ( 'NONE', #105, 0.1150000000000000883 ) ;
#200 = LINE ( 'NONE', #142, #45 ) ;
#201 = CIRCLE ( 'NONE', #82, 0.1150000000000000050 ) ;
#202 = VERTEX_POINT ( 'NONE', #256 ) ;
#203 = AXIS2_PLACEMENT_3D ( 'NONE', #23, #176, #277 ) ;
#204 = CARTESIAN_POINT ( 'NONE',  ( 0.1078192932642391966, 0.04000000000000003553, -1.649999999999999911 ) ) ;
#205 = ORIENTED_EDGE ( 'NONE', *, *, #146, .F. ) ;
#206 = DIRECTION ( 'NONE',  ( 1.000000000000000000, 0.000000000000000000, 0.000000000000000000 ) ) ;
#207 = ADVANCED_FACE ( 'NONE', ( #4 ), #122, .F. ) ;
#208 = CARTESIAN_POINT ( 'NONE',  ( 0.1078192932642391966, -0.04000000000000004940, -1.649999999999999911 ) ) ;
#209 = VECTOR ( 'NONE', #147, 1000.000000000000000 ) ;
#210 = EDGE_LOOP ( 'NONE', ( #213, #33, #54 ) ) ;
#211 = DIRECTION ( 'NONE',  ( 0.000000000000000000, 1.000000000000000000, 0.000000000000000000 ) ) ;
#212 = EDGE_LOOP ( 'NONE', ( #19, #78 ) ) ;
#213 = ORIENTED_EDGE ( 'NONE', *, *, #86, .F. ) ;
#214 = COLOUR_RGB ( '',0.7921568627450980005, 0.8196078431372548767, 0.9333333333333333481 ) ;
#215 = CARTESIAN_POINT ( 'NONE',  ( 0.1078192932642391966, 0.04000000000000003553, -1.649999999999999911 ) ) ;
#216 = CARTESIAN_POINT ( 'NONE',  ( 0.000000000000000000, 0.000000000000000000, -1.270000000000000018 ) ) ;
#217 = DIRECTION ( 'NONE',  ( 0.000000000000000000, 0.000000000000000000, 1.000000000000000000 ) ) ;
#218 = PRODUCT ( 'PE1016-1', 'PE1016-1', '', ( #278 ) ) ;
#219 = CARTESIAN_POINT ( 'NONE',  ( 0.1078192932642391966, 0.04000000000000003553, -1.649999999999999911 ) ) ;
#220 = EDGE_CURVE ( 'NONE', #15, #36, #178, .T. ) ;
#221 = CIRCLE ( 'NONE', #248, 0.1150000000000000883 ) ;
#222 =( NAMED_UNIT ( * ) SI_UNIT ( $, .STERADIAN. ) SOLID_ANGLE_UNIT ( ) );
#223 = AXIS2_PLACEMENT_3D ( 'NONE', #37, #217, #64 ) ;
#224 =( GEOMETRIC_REPRESENTATION_CONTEXT ( 3 ) GLOBAL_UNCERTAINTY_ASSIGNED_CONTEXT ( ( #136 ) ) GLOBAL_UNIT_ASSIGNED_CONTEXT ( ( #79, #106, #168 ) ) REPRESENTATION_CONTEXT ( 'NONE', 'WORKASPACE' ) );
#225 = FACE_OUTER_BOUND ( 'NONE', #58, .T. ) ;
#226 = AXIS2_PLACEMENT_3D ( 'NONE', #39, #196, #41 ) ;
#227 = CARTESIAN_POINT ( 'NONE',  ( -0.1078192932642392105, 0.04000000000000003553, -1.270000000000000018 ) ) ;
#228 = ORIENTED_EDGE ( 'NONE', *, *, #46, .T. ) ;
#229 = CARTESIAN_POINT ( 'NONE',  ( 0.000000000000000000, 0.000000000000000000, -0.1150000000000000883 ) ) ;
#230 = VERTEX_POINT ( 'NONE', #48 ) ;
#231 = STYLED_ITEM ( 'NONE', ( #91 ), #42 ) ;
#232 = DIRECTION ( 'NONE',  ( -1.000000000000000000, 2.513933591246015121E-16, 0.000000000000000000 ) ) ;
#233 = ORIENTED_EDGE ( 'NONE', *, *, #86, .T. ) ;
#234 = ADVANCED_FACE ( 'NONE', ( #225 ), #157, .F. ) ;
#235 = CARTESIAN_POINT ( 'NONE',  ( 0.000000000000000000, 0.000000000000000000, -0.1150000000000000883 ) ) ;
#236 = ORIENTED_EDGE ( 'NONE', *, *, #121, .T. ) ;
#237 = FACE_OUTER_BOUND ( 'NONE', #28, .T. ) ;
#238 = FACE_OUTER_BOUND ( 'NONE', #210, .T. ) ;
#239 = ORIENTED_EDGE ( 'NONE', *, *, #146, .T. ) ;
#240 = PRESENTATION_STYLE_ASSIGNMENT (( #35 ) ) ;
#241 = CARTESIAN_POINT ( 'NONE',  ( 0.000000000000000000, 0.000000000000000000, -1.649999999999999911 ) ) ;
#242 = AXIS2_PLACEMENT_3D ( 'NONE', #289, #104, #292 ) ;
#243 = CARTESIAN_POINT ( 'NONE',  ( 0.1078192932642391966, 0.04000000000000003553, -1.649999999999999911 ) ) ;
#244 = APPLICATION_CONTEXT ( 'automotive_design' ) ;
#245 = LINE ( 'NONE', #246, #92 ) ;
#246 = CARTESIAN_POINT ( 'NONE',  ( 0.1078192932642391827, -0.04000000000000009104, -1.270000000000000018 ) ) ;
#247 = SURFACE_SIDE_STYLE ('',( #63 ) ) ;
#248 = AXIS2_PLACEMENT_3D ( 'NONE', #187, #72, #206 ) ;
#249 = EDGE_CURVE ( 'NONE', #262, #190, #200, .T. ) ;
#250 = SURFACE_STYLE_USAGE ( .BOTH. , #247 ) ;
#251 = DIRECTION ( 'NONE',  ( 0.000000000000000000, 0.000000000000000000, 1.000000000000000000 ) ) ;
#252 = PRODUCT_RELATED_PRODUCT_CATEGORY ( 'part', '', ( #218 ) ) ;
#253 = CYLINDRICAL_SURFACE ( 'NONE', #94, 0.1150000000000000883 ) ;
#254 = EDGE_LOOP ( 'NONE', ( #205, #80, #76, #120, #148, #193, #290, #7 ) ) ;
#255 = PRESENTATION_LAYER_ASSIGNMENT (  '', '', ( #74 ) ) ;
#256 = CARTESIAN_POINT ( 'NONE',  ( 0.1078192932642391688, -0.04000000000000009104, -1.270000000000000018 ) ) ;
#257 = CARTESIAN_POINT ( 'NONE',  ( 0.1078192932642391827, -0.04000000000000009104, -1.649999999999999911 ) ) ;
#258 = ORIENTED_EDGE ( 'NONE', *, *, #272, .T. ) ;
#259 = ADVANCED_FACE ( 'NONE', ( #299 ), #6, .T. ) ;
#260 =( NAMED_UNIT ( * ) SI_UNIT ( $, .STERADIAN. ) SOLID_ANGLE_UNIT ( ) );
#261 = CARTESIAN_POINT ( 'NONE',  ( 0.1078192932642391966, -0.04000000000000004940, -1.649999999999999911 ) ) ;
#262 = VERTEX_POINT ( 'NONE', #208 ) ;
#263 = DIRECTION ( 'NONE',  ( 1.224646799147353207E-16, 1.000000000000000000, -0.000000000000000000 ) ) ;
#264 = AXIS2_PLACEMENT_3D ( 'NONE', #204, #52, #143 ) ;
#265 = ORIENTED_EDGE ( 'NONE', *, *, #220, .T. ) ;
#266 = ADVANCED_FACE ( 'NONE', ( #238 ), #83, .T. ) ;
#267 = CARTESIAN_POINT ( 'NONE',  ( 7.041719095097280756E-18, 0.000000000000000000, -8.131516293641283255E-17 ) ) ;
#268 = EDGE_LOOP ( 'NONE', ( #186, #233, #165 ) ) ;
#269 = FILL_AREA_STYLE ('',( #170 ) ) ;
#270 = CARTESIAN_POINT ( 'NONE',  ( 0.000000000000000000, 0.000000000000000000, -1.649999999999999911 ) ) ;
#271 = DIRECTION ( 'NONE',  ( 1.000000000000000000, 0.000000000000000000, 0.000000000000000000 ) ) ;
#272 = EDGE_CURVE ( 'NONE', #262, #202, #10, .T. ) ;
#273 = COLOUR_RGB ( '',0.7921568627450980005, 0.8196078431372548767, 0.9333333333333333481 ) ;
#274 = FILL_AREA_STYLE ('',( #133 ) ) ;
#275 = AXIS2_PLACEMENT_3D ( 'NONE', #198, #263, #153 ) ;
#276 = CIRCLE ( 'NONE', #115, 0.1150000000000000883 ) ;
#277 = DIRECTION ( 'NONE',  ( 1.000000000000000000, 0.000000000000000000, 0.000000000000000000 ) ) ;
#278 = PRODUCT_CONTEXT ( 'NONE', #244, 'mechanical' ) ;
#279 = DIRECTION ( 'NONE',  ( 1.000000000000000000, 0.000000000000000000, -0.000000000000000000 ) ) ;
#280 = CIRCLE ( 'NONE', #20, 0.1150000000000000883 ) ;
#281 = CARTESIAN_POINT ( 'NONE',  ( 0.000000000000000000, 0.000000000000000000, -1.649999999999999911 ) ) ;
#282 = VERTEX_POINT ( 'NONE', #57 ) ;
#283 = DIRECTION ( 'NONE',  ( -1.000000000000000000, 0.000000000000000000, 0.000000000000000000 ) ) ;
#284 = CARTESIAN_POINT ( 'NONE',  ( -0.1150000000000000883, 1.408343819019457384E-17, -1.270000000000000018 ) ) ;
#285 = VERTEX_POINT ( 'NONE', #267 ) ;
#286 = DIRECTION ( 'NONE',  ( 1.000000000000000000, 0.000000000000000000, 0.000000000000000000 ) ) ;
#287 = ADVANCED_FACE ( 'NONE', ( #13 ), #189, .T. ) ;
#288 = ORIENTED_EDGE ( 'NONE', *, *, #44, .T. ) ;
#289 = CARTESIAN_POINT ( 'NONE',  ( 0.000000000000000000, 0.000000000000000000, -0.1150000000000000883 ) ) ;
#290 = ORIENTED_EDGE ( 'NONE', *, *, #112, .T. ) ;
#291 = AXIS2_PLACEMENT_3D ( 'NONE', #216, #192, #17 ) ;
#292 = DIRECTION ( 'NONE',  ( 1.000000000000000000, 0.000000000000000000, 0.000000000000000000 ) ) ;
#293 = LINE ( 'NONE', #215, #25 ) ;
#294 = EDGE_CURVE ( 'NONE', #145, #84, #5, .T. ) ;
#295 = FACE_OUTER_BOUND ( 'NONE', #212, .T. ) ;
#296 = CIRCLE ( 'NONE', #275, 0.1150000000000000050 ) ;
#297 = SHAPE_DEFINITION_REPRESENTATION ( #90, #42 ) ;
#298 =( NAMED_UNIT ( * ) PLANE_ANGLE_UNIT ( ) SI_UNIT ( $, .RADIAN. ) );
#299 = FACE_OUTER_BOUND ( 'NONE', #268, .T. ) ;
#300 = AXIS2_PLACEMENT_3D ( 'NONE', #281, #97, #29 ) ;
#301 = DIRECTION ( 'NONE',  ( 0.000000000000000000, 0.000000000000000000, 1.000000000000000000 ) ) ;
#302 = ORIENTED_EDGE ( 'NONE', *, *, #249, .T. ) ;
ENDSEC;
END-ISO-10303-21;
