ISO-10303-21;
HEADER;
FILE_DESCRIPTION (( 'STEP AP214' ),
    '1' );
FILE_NAME ('PE1016-4.step',
    '2021-04-21T15:51:54',
    ( '' ),
    ( '' ),
    'SwSTEP 2.0',
    'SolidWorks 2020',
    '' );
FILE_SCHEMA (( 'AUTOMOTIVE_DESIGN' ));
ENDSEC;

DATA;
#1 = CARTESIAN_POINT ( 'NONE',  ( 0.000000000000000000, 0.000000000000000000, -0.1499999999999999667 ) ) ;
#2 = ORIENTED_EDGE ( 'NONE', *, *, #73, .T. ) ;
#3 = DIRECTION ( 'NONE',  ( 1.000000000000000000, 0.000000000000000000, 0.000000000000000000 ) ) ;
#4 = ORIENTED_EDGE ( 'NONE', *, *, #108, .F. ) ;
#5 = DIRECTION ( 'NONE',  ( -0.000000000000000000, -0.000000000000000000, 1.000000000000000000 ) ) ;
#6 = ORIENTED_EDGE ( 'NONE', *, *, #132, .F. ) ;
#7 = CARTESIAN_POINT ( 'NONE',  ( 0.000000000000000000, 0.000000000000000000, -0.1499999999999999667 ) ) ;
#8 = ORIENTED_EDGE ( 'NONE', *, *, #207, .T. ) ;
#9 = ADVANCED_FACE ( 'NONE', ( #176 ), #270, .F. ) ;
#10 = VERTEX_POINT ( 'NONE', #200 ) ;
#11 = VERTEX_POINT ( 'NONE', #175 ) ;
#12 = AXIS2_PLACEMENT_3D ( 'NONE', #269, #128, #55 ) ;
#13 = DIRECTION ( 'NONE',  ( -1.000000000000000000, 0.000000000000000000, 0.000000000000000000 ) ) ;
#14 =( GEOMETRIC_REPRESENTATION_CONTEXT ( 3 ) GLOBAL_UNCERTAINTY_ASSIGNED_CONTEXT ( ( #114 ) ) GLOBAL_UNIT_ASSIGNED_CONTEXT ( ( #80, #264, #194 ) ) REPRESENTATION_CONTEXT ( 'NONE', 'WORKASPACE' ) );
#15 = DIRECTION ( 'NONE',  ( 0.000000000000000000, 0.000000000000000000, -1.000000000000000000 ) ) ;
#16 = EDGE_CURVE ( 'NONE', #123, #219, #179, .T. ) ;
#17 = DIRECTION ( 'NONE',  ( -0.000000000000000000, -0.000000000000000000, 1.000000000000000000 ) ) ;
#18 = COLOUR_RGB ( '',0.7921568627450980005, 0.8196078431372548767, 0.9333333333333333481 ) ;
#19 = CYLINDRICAL_SURFACE ( 'NONE', #25, 0.1499999999999999944 ) ;
#20 = DIRECTION ( 'NONE',  ( -0.000000000000000000, -0.000000000000000000, -1.000000000000000000 ) ) ;
#21 = EDGE_CURVE ( 'NONE', #174, #221, #173, .T. ) ;
#22 = CARTESIAN_POINT ( 'NONE',  ( 0.1414213562373095034, -0.05000000000000003747, -1.910000000000000142 ) ) ;
#23 = APPLICATION_PROTOCOL_DEFINITION ( 'draft international standard', 'automotive_design', 1998, #164 ) ;
#24 = CARTESIAN_POINT ( 'NONE',  ( 0.000000000000000000, 0.000000000000000000, -1.910000000000000142 ) ) ;
#25 = AXIS2_PLACEMENT_3D ( 'NONE', #274, #259, #93 ) ;
#26 = DIRECTION ( 'NONE',  ( 1.000000000000000000, 0.000000000000000000, 0.000000000000000000 ) ) ;
#27 = AXIS2_PLACEMENT_3D ( 'NONE', #24, #279, #67 ) ;
#28 = VERTEX_POINT ( 'NONE', #56 ) ;
#29 = ORIENTED_EDGE ( 'NONE', *, *, #235, .F. ) ;
#30 = ORIENTED_EDGE ( 'NONE', *, *, #16, .T. ) ;
#31 = DIRECTION ( 'NONE',  ( 0.000000000000000000, 0.000000000000000000, 1.000000000000000000 ) ) ;
#32 = ADVANCED_BREP_SHAPE_REPRESENTATION ( 'PE1016-4', ( #156, #101 ), #202 ) ;
#33 = DIRECTION ( 'NONE',  ( 1.000000000000000000, 0.000000000000000000, -0.000000000000000000 ) ) ;
#34 = CARTESIAN_POINT ( 'NONE',  ( -0.1414213562373095034, -0.04999999999999996808, -1.270000000000000018 ) ) ;
#35 = ORIENTED_EDGE ( 'NONE', *, *, #21, .F. ) ;
#36 = PRESENTATION_STYLE_ASSIGNMENT (( #285 ) ) ;
#37 = CIRCLE ( 'NONE', #49, 0.1499999999999999944 ) ;
#38 = DIRECTION ( 'NONE',  ( 1.224646799147353207E-16, 1.000000000000000000, -0.000000000000000000 ) ) ;
#39 = VECTOR ( 'NONE', #65, 1000.000000000000000 ) ;
#40 = LINE ( 'NONE', #169, #144 ) ;
#41 = ADVANCED_FACE ( 'NONE', ( #102 ), #204, .T. ) ;
#42 = COLOUR_RGB ( '',0.7921568627450980005, 0.8196078431372548767, 0.9333333333333333481 ) ;
#43 = PRODUCT_DEFINITION_CONTEXT ( 'detailed design', #51, 'design' ) ;
#44 = CARTESIAN_POINT ( 'NONE',  ( 0.1500000000000000222, 0.000000000000000000, -1.910000000000000142 ) ) ;
#45 = LINE ( 'NONE', #118, #233 ) ;
#46 = DIRECTION ( 'NONE',  ( 1.000000000000000000, -0.000000000000000000, -0.000000000000000000 ) ) ;
#47 = EDGE_LOOP ( 'NONE', ( #125, #8, #229, #94, #197, #265 ) ) ;
#48 = EDGE_LOOP ( 'NONE', ( #151, #90, #188, #225, #171, #143, #267, #97 ) ) ;
#49 = AXIS2_PLACEMENT_3D ( 'NONE', #103, #77, #177 ) ;
#50 = EDGE_LOOP ( 'NONE', ( #72, #226 ) ) ;
#51 = APPLICATION_CONTEXT ( 'automotive_design' ) ;
#52 = AXIS2_PLACEMENT_3D ( 'NONE', #98, #201, #86 ) ;
#53 = CARTESIAN_POINT ( 'NONE',  ( -0.1499999999999999944, 1.836970198721029441E-17, -1.270000000000000018 ) ) ;
#54 = EDGE_CURVE ( 'NONE', #292, #11, #239, .T. ) ;
#55 = DIRECTION ( 'NONE',  ( 0.000000000000000000, 0.000000000000000000, -1.000000000000000000 ) ) ;
#56 = CARTESIAN_POINT ( 'NONE',  ( 0.1414213562373095034, 0.04999999999999994033, -1.270000000000000018 ) ) ;
#57 = DIRECTION ( 'NONE',  ( 0.000000000000000000, 0.000000000000000000, -1.000000000000000000 ) ) ;
#58 = DIRECTION ( 'NONE',  ( 0.000000000000000000, 1.000000000000000000, 0.000000000000000000 ) ) ;
#59 = AXIS2_PLACEMENT_3D ( 'NONE', #241, #218, #26 ) ;
#60 = FILL_AREA_STYLE ('',( #62 ) ) ;
#61 = SURFACE_STYLE_USAGE ( .BOTH. , #182 ) ;
#62 = FILL_AREA_STYLE_COLOUR ( '', #42 ) ;
#63 = CARTESIAN_POINT ( 'NONE',  ( 0.000000000000000000, 0.000000000000000000, -0.1499999999999999667 ) ) ;
#64 = LINE ( 'NONE', #186, #147 ) ;
#65 = DIRECTION ( 'NONE',  ( -1.000000000000000000, 2.395770963567771752E-16, 0.000000000000000000 ) ) ;
#66 = EDGE_CURVE ( 'NONE', #291, #123, #111, .T. ) ;
#67 = DIRECTION ( 'NONE',  ( -1.000000000000000000, 0.000000000000000000, 0.000000000000000000 ) ) ;
#68 = CARTESIAN_POINT ( 'NONE',  ( 0.000000000000000000, 0.000000000000000000, -0.1499999999999999667 ) ) ;
#69 = ORIENTED_EDGE ( 'NONE', *, *, #180, .T. ) ;
#70 = VECTOR ( 'NONE', #192, 1000.000000000000000 ) ;
#71 = SPHERICAL_SURFACE ( 'NONE', #263, 0.1499999999999999944 ) ;
#72 = ORIENTED_EDGE ( 'NONE', *, *, #75, .F. ) ;
#73 = EDGE_CURVE ( 'NONE', #191, #149, #162, .T. ) ;
#74 = ORIENTED_EDGE ( 'NONE', *, *, #73, .F. ) ;
#75 = EDGE_CURVE ( 'NONE', #11, #28, #45, .T. ) ;
#76 = ORIENTED_EDGE ( 'NONE', *, *, #66, .T. ) ;
#77 = DIRECTION ( 'NONE',  ( 0.000000000000000000, 0.000000000000000000, -1.000000000000000000 ) ) ;
#78 = EDGE_LOOP ( 'NONE', ( #251, #4, #29, #168 ) ) ;
#79 = CARTESIAN_POINT ( 'NONE',  ( 0.1414213562373095034, -0.05000000000000003747, -1.910000000000000142 ) ) ;
#80 =( LENGTH_UNIT ( ) NAMED_UNIT ( * ) SI_UNIT ( .MILLI., .METRE. ) );
#81 = EDGE_CURVE ( 'NONE', #223, #291, #87, .T. ) ;
#82 = DIRECTION ( 'NONE',  ( 0.000000000000000000, 1.000000000000000000, 0.000000000000000000 ) ) ;
#83 =( NAMED_UNIT ( * ) SI_UNIT ( $, .STERADIAN. ) SOLID_ANGLE_UNIT ( ) );
#84 =( NAMED_UNIT ( * ) SI_UNIT ( $, .STERADIAN. ) SOLID_ANGLE_UNIT ( ) );
#85 = AXIS2_PLACEMENT_3D ( 'NONE', #178, #121, #203 ) ;
#86 = DIRECTION ( 'NONE',  ( -1.000000000000000000, 0.000000000000000000, -0.000000000000000000 ) ) ;
#87 = CIRCLE ( 'NONE', #27, 0.1500000000000000222 ) ;
#88 = DIRECTION ( 'NONE',  ( 0.000000000000000000, 0.000000000000000000, 1.000000000000000000 ) ) ;
#89 = CARTESIAN_POINT ( 'NONE',  ( 0.1414213562373095034, -0.05000000000000003747, -1.270000000000000018 ) ) ;
#90 = ORIENTED_EDGE ( 'NONE', *, *, #166, .T. ) ;
#91 = CLOSED_SHELL ( 'NONE', ( #198, #105, #120, #9, #189, #284, #238, #41, #290 ) ) ;
#92 = EDGE_LOOP ( 'NONE', ( #95, #117, #248 ) ) ;
#93 = DIRECTION ( 'NONE',  ( 1.000000000000000000, 0.000000000000000000, 0.000000000000000000 ) ) ;
#94 = ORIENTED_EDGE ( 'NONE', *, *, #81, .T. ) ;
#95 = ORIENTED_EDGE ( 'NONE', *, *, #296, .F. ) ;
#96 = AXIS2_PLACEMENT_3D ( 'NONE', #187, #163, #138 ) ;
#97 = ORIENTED_EDGE ( 'NONE', *, *, #54, .F. ) ;
#98 = CARTESIAN_POINT ( 'NONE',  ( 0.000000000000000000, 0.000000000000000000, -1.910000000000000142 ) ) ;
#99 = AXIS2_PLACEMENT_3D ( 'NONE', #205, #288, #271 ) ;
#100 = DIRECTION ( 'NONE',  ( -1.000000000000000000, 2.395770963567771752E-16, 0.000000000000000000 ) ) ;
#101 = AXIS2_PLACEMENT_3D ( 'NONE', #136, #256, #237 ) ;
#102 = FACE_OUTER_BOUND ( 'NONE', #47, .T. ) ;
#103 = CARTESIAN_POINT ( 'NONE',  ( 0.000000000000000000, 0.000000000000000000, -1.910000000000000142 ) ) ;
#104 = SURFACE_SIDE_STYLE ('',( #157 ) ) ;
#105 = ADVANCED_FACE ( 'NONE', ( #220 ), #139, .T. ) ;
#106 =( LENGTH_UNIT ( ) NAMED_UNIT ( * ) SI_UNIT ( .MILLI., .METRE. ) );
#107 = DIRECTION ( 'NONE',  ( -1.000000000000000000, 2.395770963567771752E-16, 0.000000000000000000 ) ) ;
#108 = EDGE_CURVE ( 'NONE', #223, #28, #64, .T. ) ;
#109 = SURFACE_STYLE_FILL_AREA ( #60 ) ;
#110 = SHAPE_DEFINITION_REPRESENTATION ( #208, #32 ) ;
#111 = LINE ( 'NONE', #262, #158 ) ;
#112 = DIRECTION ( 'NONE',  ( -0.000000000000000000, -0.000000000000000000, 1.000000000000000000 ) ) ;
#113 = PRESENTATION_LAYER_ASSIGNMENT (  '', '', ( #185 ) ) ;
#114 = UNCERTAINTY_MEASURE_WITH_UNIT (LENGTH_MEASURE( 1.000000000000000082E-05 ), #80, 'distance_accuracy_value', 'NONE');
#115 = CARTESIAN_POINT ( 'NONE',  ( 0.1499999999999999944, 0.000000000000000000, -0.1499999999999999667 ) ) ;
#116 = DIRECTION ( 'NONE',  ( -0.000000000000000000, -0.000000000000000000, 1.000000000000000000 ) ) ;
#117 = ORIENTED_EDGE ( 'NONE', *, *, #273, .T. ) ;
#118 = CARTESIAN_POINT ( 'NONE',  ( 0.1414213562373095034, 0.04999999999999994033, -1.270000000000000018 ) ) ;
#119 = ORIENTED_EDGE ( 'NONE', *, *, #273, .F. ) ;
#120 = ADVANCED_FACE ( 'NONE', ( #215 ), #183, .F. ) ;
#121 = DIRECTION ( 'NONE',  ( 0.000000000000000000, 0.000000000000000000, -1.000000000000000000 ) ) ;
#122 = ORIENTED_EDGE ( 'NONE', *, *, #140, .T. ) ;
#123 = VERTEX_POINT ( 'NONE', #115 ) ;
#124 = EDGE_CURVE ( 'NONE', #28, #11, #243, .T. ) ;
#125 = ORIENTED_EDGE ( 'NONE', *, *, #21, .T. ) ;
#126 = ORIENTED_EDGE ( 'NONE', *, *, #258, .T. ) ;
#127 = FACE_OUTER_BOUND ( 'NONE', #78, .T. ) ;
#128 = DIRECTION ( 'NONE',  ( 0.000000000000000000, -1.000000000000000000, 0.000000000000000000 ) ) ;
#129 = CIRCLE ( 'NONE', #300, 0.1499999999999999944 ) ;
#130 = FACE_OUTER_BOUND ( 'NONE', #294, .T. ) ;
#131 = PRESENTATION_STYLE_ASSIGNMENT (( #61 ) ) ;
#132 = EDGE_CURVE ( 'NONE', #149, #283, #213, .T. ) ;
#133 = CARTESIAN_POINT ( 'NONE',  ( 0.1414213562373095034, 0.04999999999999994033, -1.910000000000000142 ) ) ;
#134 = PLANE ( 'NONE',  #230 ) ;
#135 =( LENGTH_UNIT ( ) NAMED_UNIT ( * ) SI_UNIT ( .MILLI., .METRE. ) );
#136 = CARTESIAN_POINT ( 'NONE',  ( 0.000000000000000000, 0.000000000000000000, 0.000000000000000000 ) ) ;
#137 = PRODUCT ( 'PE1016-4', 'PE1016-4', '', ( #211 ) ) ;
#138 = DIRECTION ( 'NONE',  ( 1.000000000000000000, 0.000000000000000000, 0.000000000000000000 ) ) ;
#139 = CYLINDRICAL_SURFACE ( 'NONE', #59, 0.1499999999999999944 ) ;
#140 = EDGE_CURVE ( 'NONE', #123, #10, #141, .T. ) ;
#141 = CIRCLE ( 'NONE', #260, 0.1499999999999999944 ) ;
#142 = CARTESIAN_POINT ( 'NONE',  ( 0.000000000000000000, 0.000000000000000000, -1.270000000000000018 ) ) ;
#143 = ORIENTED_EDGE ( 'NONE', *, *, #108, .T. ) ;
#144 = VECTOR ( 'NONE', #172, 1000.000000000000000 ) ;
#145 = ORIENTED_EDGE ( 'NONE', *, *, #140, .F. ) ;
#146 = EDGE_LOOP ( 'NONE', ( #250, #35, #126, #69, #74, #286, #76, #122 ) ) ;
#147 = VECTOR ( 'NONE', #112, 1000.000000000000000 ) ;
#148 = LINE ( 'NONE', #257, #181 ) ;
#149 = VERTEX_POINT ( 'NONE', #89 ) ;
#150 = ORIENTED_EDGE ( 'NONE', *, *, #180, .F. ) ;
#151 = ORIENTED_EDGE ( 'NONE', *, *, #207, .F. ) ;
#152 = FACE_OUTER_BOUND ( 'NONE', #216, .T. ) ;
#153 = CIRCLE ( 'NONE', #212, 0.1499999999999999944 ) ;
#154 = MECHANICAL_DESIGN_GEOMETRIC_PRESENTATION_REPRESENTATION (  '', ( #287 ), #247 ) ;
#155 = FACE_OUTER_BOUND ( 'NONE', #92, .T. ) ;
#156 = MANIFOLD_SOLID_BREP ( 'Fillet1', #91 ) ;
#157 = SURFACE_STYLE_FILL_AREA ( #167 ) ;
#158 = VECTOR ( 'NONE', #244, 1000.000000000000000 ) ;
#159 = APPLICATION_PROTOCOL_DEFINITION ( 'draft international standard', 'automotive_design', 1998, #51 ) ;
#160 = DIRECTION ( 'NONE',  ( 1.000000000000000000, 0.000000000000000000, 0.000000000000000000 ) ) ;
#161 =( NAMED_UNIT ( * ) PLANE_ANGLE_UNIT ( ) SI_UNIT ( $, .RADIAN. ) );
#162 = LINE ( 'NONE', #184, #275 ) ;
#163 = DIRECTION ( 'NONE',  ( 0.000000000000000000, 0.000000000000000000, 1.000000000000000000 ) ) ;
#164 = APPLICATION_CONTEXT ( 'automotive_design' ) ;
#165 = DIRECTION ( 'NONE',  ( -0.000000000000000000, -0.000000000000000000, -1.000000000000000000 ) ) ;
#166 = EDGE_CURVE ( 'NONE', #221, #10, #231, .T. ) ;
#167 = FILL_AREA_STYLE ('',( #190 ) ) ;
#168 = ORIENTED_EDGE ( 'NONE', *, *, #54, .T. ) ;
#169 = CARTESIAN_POINT ( 'NONE',  ( 0.1414213562373095034, 0.04999999999999994033, -1.910000000000000142 ) ) ;
#170 = AXIS2_PLACEMENT_3D ( 'NONE', #133, #293, #57 ) ;
#171 = ORIENTED_EDGE ( 'NONE', *, *, #81, .F. ) ;
#172 = DIRECTION ( 'NONE',  ( 1.000000000000000000, -0.000000000000000000, -0.000000000000000000 ) ) ;
#173 = CIRCLE ( 'NONE', #199, 0.1499999999999999944 ) ;
#174 = VERTEX_POINT ( 'NONE', #282 ) ;
#175 = CARTESIAN_POINT ( 'NONE',  ( -0.1414213562373095034, 0.04999999999999994033, -1.270000000000000018 ) ) ;
#176 = FACE_OUTER_BOUND ( 'NONE', #50, .T. ) ;
#177 = DIRECTION ( 'NONE',  ( -1.000000000000000000, 0.000000000000000000, 0.000000000000000000 ) ) ;
#178 = CARTESIAN_POINT ( 'NONE',  ( 0.000000000000000000, 0.000000000000000000, -1.910000000000000142 ) ) ;
#179 = CIRCLE ( 'NONE', #12, 0.1499999999999999667 ) ;
#180 = EDGE_CURVE ( 'NONE', #283, #149, #246, .T. ) ;
#181 = VECTOR ( 'NONE', #17, 1000.000000000000000 ) ;
#182 = SURFACE_SIDE_STYLE ('',( #109 ) ) ;
#183 = PLANE ( 'NONE',  #266 ) ;
#184 = CARTESIAN_POINT ( 'NONE',  ( 0.1414213562373095312, -0.04999999999999996808, -1.910000000000000142 ) ) ;
#185 = STYLED_ITEM ( 'NONE', ( #36 ), #156 ) ;
#186 = CARTESIAN_POINT ( 'NONE',  ( 0.1414213562373095034, 0.04999999999999994033, -1.910000000000000142 ) ) ;
#187 = CARTESIAN_POINT ( 'NONE',  ( 0.000000000000000000, 0.000000000000000000, -1.270000000000000018 ) ) ;
#188 = ORIENTED_EDGE ( 'NONE', *, *, #296, .T. ) ;
#189 = ADVANCED_FACE ( 'NONE', ( #295 ), #19, .T. ) ;
#190 = FILL_AREA_STYLE_COLOUR ( '', #18 ) ;
#191 = VERTEX_POINT ( 'NONE', #206 ) ;
#192 = DIRECTION ( 'NONE',  ( 0.000000000000000000, 0.000000000000000000, 1.000000000000000000 ) ) ;
#193 = ORIENTED_EDGE ( 'NONE', *, *, #258, .F. ) ;
#194 =( NAMED_UNIT ( * ) SI_UNIT ( $, .STERADIAN. ) SOLID_ANGLE_UNIT ( ) );
#195 = AXIS2_PLACEMENT_3D ( 'NONE', #277, #82, #261 ) ;
#196 = PRODUCT_DEFINITION_FORMATION_WITH_SPECIFIED_SOURCE ( 'ANY', '', #137, .NOT_KNOWN. ) ;
#197 = ORIENTED_EDGE ( 'NONE', *, *, #268, .T. ) ;
#198 = ADVANCED_FACE ( 'NONE', ( #155 ), #71, .T. ) ;
#199 = AXIS2_PLACEMENT_3D ( 'NONE', #227, #15, #13 ) ;
#200 = CARTESIAN_POINT ( 'NONE',  ( -0.1499999999999999944, 1.836970198721029441E-17, -0.1499999999999999667 ) ) ;
#201 = DIRECTION ( 'NONE',  ( 0.000000000000000000, 0.000000000000000000, -1.000000000000000000 ) ) ;
#202 =( GEOMETRIC_REPRESENTATION_CONTEXT ( 3 ) GLOBAL_UNCERTAINTY_ASSIGNED_CONTEXT ( ( #272 ) ) GLOBAL_UNIT_ASSIGNED_CONTEXT ( ( #135, #161, #84 ) ) REPRESENTATION_CONTEXT ( 'NONE', 'WORKASPACE' ) );
#203 = DIRECTION ( 'NONE',  ( -1.000000000000000000, 0.000000000000000000, 0.000000000000000000 ) ) ;
#204 = PLANE ( 'NONE',  #52 ) ;
#205 = CARTESIAN_POINT ( 'NONE',  ( 0.000000000000000000, 0.000000000000000000, -1.270000000000000018 ) ) ;
#206 = CARTESIAN_POINT ( 'NONE',  ( 0.1414213562373095312, -0.04999999999999996808, -1.910000000000000142 ) ) ;
#207 = EDGE_CURVE ( 'NONE', #221, #292, #37, .T. ) ;
#208 = PRODUCT_DEFINITION_SHAPE ( 'NONE', 'NONE',  #224 ) ;
#209 = UNCERTAINTY_MEASURE_WITH_UNIT (LENGTH_MEASURE( 1.000000000000000082E-05 ), #106, 'distance_accuracy_value', 'NONE');
#210 = SPHERICAL_SURFACE ( 'NONE', #195, 0.1499999999999999944 ) ;
#211 = PRODUCT_CONTEXT ( 'NONE', #164, 'mechanical' ) ;
#212 = AXIS2_PLACEMENT_3D ( 'NONE', #63, #20, #160 ) ;
#213 = LINE ( 'NONE', #280, #39 ) ;
#214 = VECTOR ( 'NONE', #5, 1000.000000000000000 ) ;
#215 = FACE_OUTER_BOUND ( 'NONE', #245, .T. ) ;
#216 = EDGE_LOOP ( 'NONE', ( #119, #145, #30 ) ) ;
#217 = PRODUCT_RELATED_PRODUCT_CATEGORY ( 'part', '', ( #137 ) ) ;
#218 = DIRECTION ( 'NONE',  ( 0.000000000000000000, 0.000000000000000000, 1.000000000000000000 ) ) ;
#219 = VERTEX_POINT ( 'NONE', #254 ) ;
#220 = FACE_OUTER_BOUND ( 'NONE', #48, .T. ) ;
#221 = VERTEX_POINT ( 'NONE', #297 ) ;
#222 = DIRECTION ( 'NONE',  ( 1.000000000000000000, 0.000000000000000000, 0.000000000000000000 ) ) ;
#223 = VERTEX_POINT ( 'NONE', #232 ) ;
#224 = PRODUCT_DEFINITION ( 'UNKNOWN', '', #196, #43 ) ;
#225 = ORIENTED_EDGE ( 'NONE', *, *, #66, .F. ) ;
#226 = ORIENTED_EDGE ( 'NONE', *, *, #124, .F. ) ;
#227 = CARTESIAN_POINT ( 'NONE',  ( 0.000000000000000000, 0.000000000000000000, -1.910000000000000142 ) ) ;
#228 = PLANE ( 'NONE',  #170 ) ;
#229 = ORIENTED_EDGE ( 'NONE', *, *, #235, .T. ) ;
#230 = AXIS2_PLACEMENT_3D ( 'NONE', #79, #234, #100 ) ;
#231 = LINE ( 'NONE', #53, #70 ) ;
#232 = CARTESIAN_POINT ( 'NONE',  ( 0.1414213562373095034, 0.04999999999999994033, -1.910000000000000142 ) ) ;
#233 = VECTOR ( 'NONE', #46, 1000.000000000000000 ) ;
#234 = DIRECTION ( 'NONE',  ( 2.395770963567771752E-16, 1.000000000000000000, 0.000000000000000000 ) ) ;
#235 = EDGE_CURVE ( 'NONE', #292, #223, #40, .T. ) ;
#236 = LINE ( 'NONE', #22, #255 ) ;
#237 = DIRECTION ( 'NONE',  ( 1.000000000000000000, 0.000000000000000000, 0.000000000000000000 ) ) ;
#238 = ADVANCED_FACE ( 'NONE', ( #130 ), #134, .F. ) ;
#239 = LINE ( 'NONE', #242, #214 ) ;
#240 = CIRCLE ( 'NONE', #85, 0.1500000000000000222 ) ;
#241 = CARTESIAN_POINT ( 'NONE',  ( 0.000000000000000000, 0.000000000000000000, -1.270000000000000018 ) ) ;
#242 = CARTESIAN_POINT ( 'NONE',  ( -0.1414213562373095034, 0.04999999999999994033, -1.910000000000000142 ) ) ;
#243 = CIRCLE ( 'NONE', #96, 0.1499999999999999944 ) ;
#244 = DIRECTION ( 'NONE',  ( 0.000000000000000000, 0.000000000000000000, 1.000000000000000000 ) ) ;
#245 = EDGE_LOOP ( 'NONE', ( #6, #150 ) ) ;
#246 = CIRCLE ( 'NONE', #99, 0.1499999999999999944 ) ;
#247 =( GEOMETRIC_REPRESENTATION_CONTEXT ( 3 ) GLOBAL_UNCERTAINTY_ASSIGNED_CONTEXT ( ( #209 ) ) GLOBAL_UNIT_ASSIGNED_CONTEXT ( ( #106, #276, #83 ) ) REPRESENTATION_CONTEXT ( 'NONE', 'WORKASPACE' ) );
#248 = ORIENTED_EDGE ( 'NONE', *, *, #16, .F. ) ;
#249 = PRESENTATION_LAYER_ASSIGNMENT (  '', '', ( #287 ) ) ;
#250 = ORIENTED_EDGE ( 'NONE', *, *, #166, .F. ) ;
#251 = ORIENTED_EDGE ( 'NONE', *, *, #75, .T. ) ;
#252 = DIRECTION ( 'NONE',  ( -1.000000000000000000, 1.224646799147352961E-16, 0.000000000000000000 ) ) ;
#253 = CARTESIAN_POINT ( 'NONE',  ( 0.000000000000000000, 0.000000000000000000, -1.270000000000000018 ) ) ;
#254 = CARTESIAN_POINT ( 'NONE',  ( 9.184850993605147205E-18, 0.000000000000000000, 2.710505431213761085E-17 ) ) ;
#255 = VECTOR ( 'NONE', #107, 1000.000000000000000 ) ;
#256 = DIRECTION ( 'NONE',  ( 0.000000000000000000, 0.000000000000000000, 1.000000000000000000 ) ) ;
#257 = CARTESIAN_POINT ( 'NONE',  ( -0.1414213562373095034, -0.04999999999999996808, -1.910000000000000142 ) ) ;
#258 = EDGE_CURVE ( 'NONE', #174, #283, #148, .T. ) ;
#259 = DIRECTION ( 'NONE',  ( 0.000000000000000000, 0.000000000000000000, 1.000000000000000000 ) ) ;
#260 = AXIS2_PLACEMENT_3D ( 'NONE', #1, #165, #3 ) ;
#261 = DIRECTION ( 'NONE',  ( 1.000000000000000000, 0.000000000000000000, 0.000000000000000000 ) ) ;
#262 = CARTESIAN_POINT ( 'NONE',  ( 0.1499999999999999944, 0.000000000000000000, -1.270000000000000018 ) ) ;
#263 = AXIS2_PLACEMENT_3D ( 'NONE', #68, #58, #222 ) ;
#264 =( NAMED_UNIT ( * ) PLANE_ANGLE_UNIT ( ) SI_UNIT ( $, .RADIAN. ) );
#265 = ORIENTED_EDGE ( 'NONE', *, *, #302, .T. ) ;
#266 = AXIS2_PLACEMENT_3D ( 'NONE', #142, #88, #278 ) ;
#267 = ORIENTED_EDGE ( 'NONE', *, *, #124, .T. ) ;
#268 = EDGE_CURVE ( 'NONE', #291, #191, #240, .T. ) ;
#269 = CARTESIAN_POINT ( 'NONE',  ( 0.000000000000000000, 0.000000000000000000, -0.1499999999999999667 ) ) ;
#270 = PLANE ( 'NONE',  #299 ) ;
#271 = DIRECTION ( 'NONE',  ( 1.000000000000000000, 0.000000000000000000, 0.000000000000000000 ) ) ;
#272 = UNCERTAINTY_MEASURE_WITH_UNIT (LENGTH_MEASURE( 1.000000000000000082E-05 ), #135, 'distance_accuracy_value', 'NONE');
#273 = EDGE_CURVE ( 'NONE', #10, #219, #129, .T. ) ;
#274 = CARTESIAN_POINT ( 'NONE',  ( 0.000000000000000000, 0.000000000000000000, -1.270000000000000018 ) ) ;
#275 = VECTOR ( 'NONE', #116, 1000.000000000000000 ) ;
#276 =( NAMED_UNIT ( * ) PLANE_ANGLE_UNIT ( ) SI_UNIT ( $, .RADIAN. ) );
#277 = CARTESIAN_POINT ( 'NONE',  ( 0.000000000000000000, 0.000000000000000000, -0.1499999999999999667 ) ) ;
#278 = DIRECTION ( 'NONE',  ( 1.000000000000000000, 0.000000000000000000, -0.000000000000000000 ) ) ;
#279 = DIRECTION ( 'NONE',  ( 0.000000000000000000, 0.000000000000000000, -1.000000000000000000 ) ) ;
#280 = CARTESIAN_POINT ( 'NONE',  ( 0.1414213562373095034, -0.05000000000000003747, -1.270000000000000018 ) ) ;
#281 = ORIENTED_EDGE ( 'NONE', *, *, #302, .F. ) ;
#282 = CARTESIAN_POINT ( 'NONE',  ( -0.1414213562373095034, -0.04999999999999996808, -1.910000000000000142 ) ) ;
#283 = VERTEX_POINT ( 'NONE', #34 ) ;
#284 = ADVANCED_FACE ( 'NONE', ( #127 ), #228, .F. ) ;
#285 = SURFACE_STYLE_USAGE ( .BOTH. , #104 ) ;
#286 = ORIENTED_EDGE ( 'NONE', *, *, #268, .F. ) ;
#287 = STYLED_ITEM ( 'NONE', ( #131 ), #32 ) ;
#288 = DIRECTION ( 'NONE',  ( 0.000000000000000000, 0.000000000000000000, 1.000000000000000000 ) ) ;
#289 = ORIENTED_EDGE ( 'NONE', *, *, #132, .T. ) ;
#290 = ADVANCED_FACE ( 'NONE', ( #152 ), #210, .T. ) ;
#291 = VERTEX_POINT ( 'NONE', #44 ) ;
#292 = VERTEX_POINT ( 'NONE', #298 ) ;
#293 = DIRECTION ( 'NONE',  ( 0.000000000000000000, -1.000000000000000000, -0.000000000000000000 ) ) ;
#294 = EDGE_LOOP ( 'NONE', ( #289, #193, #281, #2 ) ) ;
#295 = FACE_OUTER_BOUND ( 'NONE', #146, .T. ) ;
#296 = EDGE_CURVE ( 'NONE', #10, #123, #153, .T. ) ;
#297 = CARTESIAN_POINT ( 'NONE',  ( -0.1499999999999999944, 1.836970198721029441E-17, -1.910000000000000142 ) ) ;
#298 = CARTESIAN_POINT ( 'NONE',  ( -0.1414213562373095034, 0.04999999999999994033, -1.910000000000000142 ) ) ;
#299 = AXIS2_PLACEMENT_3D ( 'NONE', #253, #31, #33 ) ;
#300 = AXIS2_PLACEMENT_3D ( 'NONE', #7, #38, #252 ) ;
#301 = MECHANICAL_DESIGN_GEOMETRIC_PRESENTATION_REPRESENTATION (  '', ( #185 ), #14 ) ;
#302 = EDGE_CURVE ( 'NONE', #191, #174, #236, .T. ) ;
ENDSEC;
END-ISO-10303-21;
