ISO-10303-21;
HEADER;
FILE_DESCRIPTION (( 'STEP AP214' ),
    '1' );
FILE_NAME ('PE1016-7.step',
    '2021-04-21T15:52:09',
    ( '' ),
    ( '' ),
    'SwSTEP 2.0',
    'SolidWorks 2020',
    '' );
FILE_SCHEMA (( 'AUTOMOTIVE_DESIGN' ));
ENDSEC;

DATA;
#1 = FACE_OUTER_BOUND ( 'NONE', #302, .T. ) ;
#2 = ORIENTED_EDGE ( 'NONE', *, *, #297, .F. ) ;
#3 = DIRECTION ( 'NONE',  ( 0.000000000000000000, 0.000000000000000000, -1.000000000000000000 ) ) ;
#4 = PRESENTATION_LAYER_ASSIGNMENT (  '', '', ( #197 ) ) ;
#5 = CARTESIAN_POINT ( 'NONE',  ( 0.1833030277982335976, 0.04999999999999994033, -3.180000000000000160 ) ) ;
#6 = ORIENTED_EDGE ( 'NONE', *, *, #234, .T. ) ;
#7 = AXIS2_PLACEMENT_3D ( 'NONE', #270, #14, #37 ) ;
#8 = PLANE ( 'NONE',  #300 ) ;
#9 = PLANE ( 'NONE',  #34 ) ;
#10 = CARTESIAN_POINT ( 'NONE',  ( 0.000000000000000000, 0.000000000000000000, 0.000000000000000000 ) ) ;
#11 = ORIENTED_EDGE ( 'NONE', *, *, #47, .F. ) ;
#12 = CARTESIAN_POINT ( 'NONE',  ( 0.1833030277982335976, 0.04999999999999994033, -3.180000000000000160 ) ) ;
#13 = EDGE_CURVE ( 'NONE', #241, #294, #245, .T. ) ;
#14 = DIRECTION ( 'NONE',  ( 0.000000000000000000, 1.000000000000000000, 0.000000000000000000 ) ) ;
#15 = PRESENTATION_STYLE_ASSIGNMENT (( #128 ) ) ;
#16 = VECTOR ( 'NONE', #74, 1000.000000000000000 ) ;
#17 = CIRCLE ( 'NONE', #51, 0.1900000000000000022 ) ;
#18 = UNCERTAINTY_MEASURE_WITH_UNIT (LENGTH_MEASURE( 1.000000000000000082E-05 ), #265, 'distance_accuracy_value', 'NONE');
#19 = DIRECTION ( 'NONE',  ( 0.000000000000000000, 0.000000000000000000, 1.000000000000000000 ) ) ;
#20 = EDGE_LOOP ( 'NONE', ( #217, #59, #11, #163 ) ) ;
#21 = VECTOR ( 'NONE', #291, 1000.000000000000000 ) ;
#22 = DIRECTION ( 'NONE',  ( -1.000000000000000000, 1.224646799147353207E-16, 0.000000000000000000 ) ) ;
#23 = EDGE_CURVE ( 'NONE', #154, #61, #258, .T. ) ;
#24 = LINE ( 'NONE', #226, #253 ) ;
#25 = VECTOR ( 'NONE', #152, 1000.000000000000000 ) ;
#26 = EDGE_CURVE ( 'NONE', #227, #276, #150, .T. ) ;
#27 = CARTESIAN_POINT ( 'NONE',  ( 0.1900000000000000022, 0.000000000000000000, -0.1900000000000000577 ) ) ;
#28 = DIRECTION ( 'NONE',  ( 0.000000000000000000, 0.000000000000000000, -1.000000000000000000 ) ) ;
#29 = DIRECTION ( 'NONE',  ( 0.000000000000000000, 0.000000000000000000, 1.000000000000000000 ) ) ;
#30 = LINE ( 'NONE', #141, #86 ) ;
#31 = AXIS2_PLACEMENT_3D ( 'NONE', #87, #131, #63 ) ;
#32 = ORIENTED_EDGE ( 'NONE', *, *, #13, .F. ) ;
#33 = CARTESIAN_POINT ( 'NONE',  ( -0.1833030277982335976, -0.04999999999999995420, -2.160000000000000142 ) ) ;
#34 = AXIS2_PLACEMENT_3D ( 'NONE', #173, #242, #105 ) ;
#35 = VERTEX_POINT ( 'NONE', #187 ) ;
#36 = FACE_OUTER_BOUND ( 'NONE', #112, .T. ) ;
#37 = DIRECTION ( 'NONE',  ( 1.000000000000000000, 0.000000000000000000, 0.000000000000000000 ) ) ;
#38 = ADVANCED_BREP_SHAPE_REPRESENTATION ( 'PE1016-7', ( #231, #66 ), #230 ) ;
#39 = SPHERICAL_SURFACE ( 'NONE', #7, 0.1900000000000000022 ) ;
#40 = DIRECTION ( 'NONE',  ( 1.000000000000000000, 0.000000000000000000, 0.000000000000000000 ) ) ;
#41 = EDGE_LOOP ( 'NONE', ( #206, #155, #132 ) ) ;
#42 = CARTESIAN_POINT ( 'NONE',  ( 0.000000000000000000, 0.000000000000000000, -2.160000000000000142 ) ) ;
#43 = CARTESIAN_POINT ( 'NONE',  ( 0.000000000000000000, 0.000000000000000000, -0.1900000000000000577 ) ) ;
#44 = ADVANCED_FACE ( 'NONE', ( #214 ), #99, .F. ) ;
#45 = VERTEX_POINT ( 'NONE', #46 ) ;
#46 = CARTESIAN_POINT ( 'NONE',  ( 1.163414459189985590E-17, 0.000000000000000000, -5.421010862427522170E-17 ) ) ;
#47 = EDGE_CURVE ( 'NONE', #283, #71, #70, .T. ) ;
#48 = PLANE ( 'NONE',  #278 ) ;
#49 = CARTESIAN_POINT ( 'NONE',  ( 0.1833030277982335976, 0.04999999999999994033, -2.160000000000000142 ) ) ;
#50 = VECTOR ( 'NONE', #232, 1000.000000000000000 ) ;
#51 = AXIS2_PLACEMENT_3D ( 'NONE', #103, #299, #58 ) ;
#52 = LINE ( 'NONE', #295, #159 ) ;
#53 =( NAMED_UNIT ( * ) PLANE_ANGLE_UNIT ( ) SI_UNIT ( $, .RADIAN. ) );
#54 = ORIENTED_EDGE ( 'NONE', *, *, #237, .F. ) ;
#55 = PRODUCT_CONTEXT ( 'NONE', #68, 'mechanical' ) ;
#56 = FACE_OUTER_BOUND ( 'NONE', #41, .T. ) ;
#57 = DIRECTION ( 'NONE',  ( -1.000000000000000000, 2.587728397942912500E-16, 0.000000000000000000 ) ) ;
#58 = DIRECTION ( 'NONE',  ( 1.000000000000000000, 0.000000000000000000, 0.000000000000000000 ) ) ;
#59 = ORIENTED_EDGE ( 'NONE', *, *, #210, .F. ) ;
#60 = CARTESIAN_POINT ( 'NONE',  ( -0.1900000000000000022, 2.326828918379971180E-17, -3.180000000000000160 ) ) ;
#61 = VERTEX_POINT ( 'NONE', #49 ) ;
#62 = UNCERTAINTY_MEASURE_WITH_UNIT (LENGTH_MEASURE( 1.000000000000000082E-05 ), #203, 'distance_accuracy_value', 'NONE');
#63 = DIRECTION ( 'NONE',  ( -1.000000000000000000, 0.000000000000000000, 0.000000000000000000 ) ) ;
#64 = CIRCLE ( 'NONE', #281, 0.1900000000000000022 ) ;
#65 = COLOUR_RGB ( '',0.7921568627450980005, 0.8196078431372548767, 0.9333333333333333481 ) ;
#66 = AXIS2_PLACEMENT_3D ( 'NONE', #10, #78, #293 ) ;
#67 = FACE_OUTER_BOUND ( 'NONE', #88, .T. ) ;
#68 = APPLICATION_CONTEXT ( 'automotive_design' ) ;
#69 = EDGE_CURVE ( 'NONE', #35, #79, #107, .T. ) ;
#70 = LINE ( 'NONE', #5, #16 ) ;
#71 = VERTEX_POINT ( 'NONE', #207 ) ;
#72 = DIRECTION ( 'NONE',  ( -1.000000000000000000, 0.000000000000000000, 0.000000000000000000 ) ) ;
#73 = VERTEX_POINT ( 'NONE', #137 ) ;
#74 = DIRECTION ( 'NONE',  ( 1.000000000000000000, -0.000000000000000000, -0.000000000000000000 ) ) ;
#75 = CARTESIAN_POINT ( 'NONE',  ( -0.1833030277982336254, 0.04999999999999994033, -2.160000000000000142 ) ) ;
#76 = ORIENTED_EDGE ( 'NONE', *, *, #129, .F. ) ;
#77 = CARTESIAN_POINT ( 'NONE',  ( -0.1833030277982335976, 0.04999999999999994033, -3.180000000000000160 ) ) ;
#78 = DIRECTION ( 'NONE',  ( 0.000000000000000000, 0.000000000000000000, 1.000000000000000000 ) ) ;
#79 = VERTEX_POINT ( 'NONE', #27 ) ;
#81 = EDGE_CURVE ( 'NONE', #276, #241, #164, .T. ) ;
#80 = CARTESIAN_POINT ( 'NONE',  ( 0.1900000000000000022, 0.000000000000000000, -3.180000000000000160 ) ) ;
#82 =( NAMED_UNIT ( * ) SI_UNIT ( $, .STERADIAN. ) SOLID_ANGLE_UNIT ( ) );
#83 = AXIS2_PLACEMENT_3D ( 'NONE', #42, #277, #40 ) ;
#84 =( NAMED_UNIT ( * ) SI_UNIT ( $, .STERADIAN. ) SOLID_ANGLE_UNIT ( ) );
#85 = CARTESIAN_POINT ( 'NONE',  ( 0.000000000000000000, 0.000000000000000000, -3.180000000000000160 ) ) ;
#86 = VECTOR ( 'NONE', #118, 1000.000000000000000 ) ;
#87 = CARTESIAN_POINT ( 'NONE',  ( 0.000000000000000000, 0.000000000000000000, -3.180000000000000160 ) ) ;
#88 = EDGE_LOOP ( 'NONE', ( #201, #236 ) ) ;
#89 =( NAMED_UNIT ( * ) PLANE_ANGLE_UNIT ( ) SI_UNIT ( $, .RADIAN. ) );
#90 = UNCERTAINTY_MEASURE_WITH_UNIT (LENGTH_MEASURE( 1.000000000000000082E-05 ), #264, 'distance_accuracy_value', 'NONE');
#91 = ORIENTED_EDGE ( 'NONE', *, *, #289, .F. ) ;
#92 = VECTOR ( 'NONE', #282, 1000.000000000000000 ) ;
#93 = DIRECTION ( 'NONE',  ( 1.000000000000000000, 0.000000000000000000, -0.000000000000000000 ) ) ;
#94 = ADVANCED_FACE ( 'NONE', ( #1 ), #95, .T. ) ;
#95 = SPHERICAL_SURFACE ( 'NONE', #224, 0.1900000000000000022 ) ;
#96 = DIRECTION ( 'NONE',  ( -1.000000000000000000, 0.000000000000000000, 0.000000000000000000 ) ) ;
#97 = ORIENTED_EDGE ( 'NONE', *, *, #129, .T. ) ;
#98 = CARTESIAN_POINT ( 'NONE',  ( 0.1833030277982335976, 0.04999999999999994033, -2.160000000000000142 ) ) ;
#99 = PLANE ( 'NONE',  #238 ) ;
#100 = CARTESIAN_POINT ( 'NONE',  ( 0.1833030277982335976, 0.04999999999999994033, -3.180000000000000160 ) ) ;
#101 = SHAPE_DEFINITION_REPRESENTATION ( #252, #38 ) ;
#102 = ORIENTED_EDGE ( 'NONE', *, *, #255, .T. ) ;
#103 = CARTESIAN_POINT ( 'NONE',  ( 0.000000000000000000, 0.000000000000000000, -0.1900000000000000577 ) ) ;
#104 = ORIENTED_EDGE ( 'NONE', *, *, #81, .F. ) ;
#105 = DIRECTION ( 'NONE',  ( -1.000000000000000000, 0.000000000000000000, -0.000000000000000000 ) ) ;
#106 = DIRECTION ( 'NONE',  ( 0.000000000000000000, 0.000000000000000000, -1.000000000000000000 ) ) ;
#107 = CIRCLE ( 'NONE', #182, 0.1900000000000000022 ) ;
#108 = PRODUCT_RELATED_PRODUCT_CATEGORY ( 'part', '', ( #288 ) ) ;
#109 = CARTESIAN_POINT ( 'NONE',  ( 0.1833030277982335976, -0.05000000000000003053, -3.180000000000000160 ) ) ;
#110 = ORIENTED_EDGE ( 'NONE', *, *, #157, .T. ) ;
#111 = PRODUCT_DEFINITION ( 'UNKNOWN', '', #208, #250 ) ;
#112 = EDGE_LOOP ( 'NONE', ( #219, #191, #104, #120 ) ) ;
#113 = ADVANCED_FACE ( 'NONE', ( #67 ), #48, .F. ) ;
#114 = DIRECTION ( 'NONE',  ( 1.000000000000000000, 0.000000000000000000, 0.000000000000000000 ) ) ;
#115 = ORIENTED_EDGE ( 'NONE', *, *, #180, .T. ) ;
#116 = ORIENTED_EDGE ( 'NONE', *, *, #237, .T. ) ;
#117 = EDGE_CURVE ( 'NONE', #73, #185, #160, .T. ) ;
#118 = DIRECTION ( 'NONE',  ( 0.000000000000000000, 0.000000000000000000, 1.000000000000000000 ) ) ;
#119 =( GEOMETRIC_REPRESENTATION_CONTEXT ( 3 ) GLOBAL_UNCERTAINTY_ASSIGNED_CONTEXT ( ( #90 ) ) GLOBAL_UNIT_ASSIGNED_CONTEXT ( ( #264, #53, #175 ) ) REPRESENTATION_CONTEXT ( 'NONE', 'WORKASPACE' ) );
#120 = ORIENTED_EDGE ( 'NONE', *, *, #186, .T. ) ;
#121 = CLOSED_SHELL ( 'NONE', ( #146, #243, #44, #113, #259, #166, #181, #135, #94 ) ) ;
#122 = CIRCLE ( 'NONE', #215, 0.1900000000000000022 ) ;
#123 = FACE_OUTER_BOUND ( 'NONE', #20, .T. ) ;
#124 = PRESENTATION_STYLE_ASSIGNMENT (( #221 ) ) ;
#125 = ORIENTED_EDGE ( 'NONE', *, *, #202, .F. ) ;
#126 = LINE ( 'NONE', #77, #21 ) ;
#127 = CARTESIAN_POINT ( 'NONE',  ( 0.000000000000000000, 0.000000000000000000, -2.160000000000000142 ) ) ;
#128 = SURFACE_STYLE_USAGE ( .BOTH. , #269 ) ;
#129 = EDGE_CURVE ( 'NONE', #294, #35, #30, .T. ) ;
#130 = AXIS2_PLACEMENT_3D ( 'NONE', #43, #273, #22 ) ;
#131 = DIRECTION ( 'NONE',  ( 0.000000000000000000, 0.000000000000000000, -1.000000000000000000 ) ) ;
#132 = ORIENTED_EDGE ( 'NONE', *, *, #157, .F. ) ;
#133 = CYLINDRICAL_SURFACE ( 'NONE', #83, 0.1900000000000000022 ) ;
#134 = DIRECTION ( 'NONE',  ( 0.000000000000000000, 0.000000000000000000, 1.000000000000000000 ) ) ;
#135 = ADVANCED_FACE ( 'NONE', ( #212 ), #9, .T. ) ;
#136 = AXIS2_PLACEMENT_3D ( 'NONE', #200, #134, #275 ) ;
#137 = CARTESIAN_POINT ( 'NONE',  ( 0.1833030277982335976, -0.05000000000000005135, -2.160000000000000142 ) ) ;
#138 = ORIENTED_EDGE ( 'NONE', *, *, #268, .F. ) ;
#139 = EDGE_LOOP ( 'NONE', ( #254, #102, #274, #6, #194, #249 ) ) ;
#140 = ORIENTED_EDGE ( 'NONE', *, *, #268, .T. ) ;
#141 = CARTESIAN_POINT ( 'NONE',  ( -0.1900000000000000022, 2.326828918379971180E-17, -2.160000000000000142 ) ) ;
#142 = ORIENTED_EDGE ( 'NONE', *, *, #234, .F. ) ;
#143 = AXIS2_PLACEMENT_3D ( 'NONE', #85, #106, #198 ) ;
#144 = DIRECTION ( 'NONE',  ( 2.587728397942912500E-16, 1.000000000000000000, 0.000000000000000000 ) ) ;
#146 = ADVANCED_FACE ( 'NONE', ( #56 ), #39, .T. ) ;
#145 = CARTESIAN_POINT ( 'NONE',  ( 0.000000000000000000, 0.000000000000000000, -0.1900000000000000577 ) ) ;
#147 = ORIENTED_EDGE ( 'NONE', *, *, #255, .F. ) ;
#148 = CARTESIAN_POINT ( 'NONE',  ( 0.1833030277982335976, -0.05000000000000005135, -3.180000000000000160 ) ) ;
#149 = FILL_AREA_STYLE ('',( #272 ) ) ;
#150 = CIRCLE ( 'NONE', #261, 0.1900000000000000022 ) ;
#151 =( GEOMETRIC_REPRESENTATION_CONTEXT ( 3 ) GLOBAL_UNCERTAINTY_ASSIGNED_CONTEXT ( ( #18 ) ) GLOBAL_UNIT_ASSIGNED_CONTEXT ( ( #265, #193, #82 ) ) REPRESENTATION_CONTEXT ( 'NONE', 'WORKASPACE' ) );
#152 = DIRECTION ( 'NONE',  ( -0.000000000000000000, -0.000000000000000000, 1.000000000000000000 ) ) ;
#153 = CARTESIAN_POINT ( 'NONE',  ( -0.1833030277982335976, -0.04999999999999995420, -3.180000000000000160 ) ) ;
#154 = VERTEX_POINT ( 'NONE', #75 ) ;
#155 = ORIENTED_EDGE ( 'NONE', *, *, #297, .T. ) ;
#156 = DIRECTION ( 'NONE',  ( 0.000000000000000000, 0.000000000000000000, 1.000000000000000000 ) ) ;
#157 = EDGE_CURVE ( 'NONE', #79, #45, #122, .T. ) ;
#158 = CIRCLE ( 'NONE', #130, 0.1900000000000000022 ) ;
#159 = VECTOR ( 'NONE', #223, 1000.000000000000000 ) ;
#160 = LINE ( 'NONE', #233, #92 ) ;
#161 = CARTESIAN_POINT ( 'NONE',  ( 0.000000000000000000, 0.000000000000000000, -3.180000000000000160 ) ) ;
#162 = AXIS2_PLACEMENT_3D ( 'NONE', #148, #144, #57 ) ;
#163 = ORIENTED_EDGE ( 'NONE', *, *, #202, .T. ) ;
#164 = LINE ( 'NONE', #257, #50 ) ;
#165 = AXIS2_PLACEMENT_3D ( 'NONE', #161, #28, #72 ) ;
#166 = ADVANCED_FACE ( 'NONE', ( #123 ), #8, .F. ) ;
#167 = CARTESIAN_POINT ( 'NONE',  ( 0.000000000000000000, 0.000000000000000000, -3.180000000000000160 ) ) ;
#168 = EDGE_LOOP ( 'NONE', ( #147, #97, #290, #138, #142, #256, #266, #125 ) ) ;
#169 = LINE ( 'NONE', #12, #222 ) ;
#170 = ORIENTED_EDGE ( 'NONE', *, *, #186, .F. ) ;
#171 = LINE ( 'NONE', #244, #25 ) ;
#172 = EDGE_LOOP ( 'NONE', ( #285, #91 ) ) ;
#173 = CARTESIAN_POINT ( 'NONE',  ( 0.000000000000000000, 0.000000000000000000, -3.180000000000000160 ) ) ;
#174 = APPLICATION_PROTOCOL_DEFINITION ( 'draft international standard', 'automotive_design', 1998, #176 ) ;
#175 =( NAMED_UNIT ( * ) SI_UNIT ( $, .STERADIAN. ) SOLID_ANGLE_UNIT ( ) );
#176 = APPLICATION_CONTEXT ( 'automotive_design' ) ;
#177 = DIRECTION ( 'NONE',  ( 0.000000000000000000, 0.000000000000000000, -1.000000000000000000 ) ) ;
#178 = CYLINDRICAL_SURFACE ( 'NONE', #263, 0.1900000000000000022 ) ;
#179 = ORIENTED_EDGE ( 'NONE', *, *, #289, .T. ) ;
#180 = EDGE_CURVE ( 'NONE', #241, #185, #52, .T. ) ;
#181 = ADVANCED_FACE ( 'NONE', ( #36 ), #240, .F. ) ;
#182 = AXIS2_PLACEMENT_3D ( 'NONE', #211, #262, #114 ) ;
#183 = MECHANICAL_DESIGN_GEOMETRIC_PRESENTATION_REPRESENTATION (  '', ( #197 ), #119 ) ;
#184 = CARTESIAN_POINT ( 'NONE',  ( 0.000000000000000000, 0.000000000000000000, -0.1900000000000000577 ) ) ;
#185 = VERTEX_POINT ( 'NONE', #33 ) ;
#186 = EDGE_CURVE ( 'NONE', #276, #73, #171, .T. ) ;
#187 = CARTESIAN_POINT ( 'NONE',  ( -0.1900000000000000022, 2.326828918379971180E-17, -0.1900000000000000577 ) ) ;
#188 = CARTESIAN_POINT ( 'NONE',  ( 0.000000000000000000, 0.000000000000000000, -2.160000000000000142 ) ) ;
#189 = DIRECTION ( 'NONE',  ( 0.000000000000000000, 0.000000000000000000, 1.000000000000000000 ) ) ;
#190 = DIRECTION ( 'NONE',  ( 0.000000000000000000, 0.000000000000000000, -1.000000000000000000 ) ) ;
#191 = ORIENTED_EDGE ( 'NONE', *, *, #180, .F. ) ;
#192 = MECHANICAL_DESIGN_GEOMETRIC_PRESENTATION_REPRESENTATION (  '', ( #292 ), #151 ) ;
#193 =( NAMED_UNIT ( * ) PLANE_ANGLE_UNIT ( ) SI_UNIT ( $, .RADIAN. ) );
#194 = ORIENTED_EDGE ( 'NONE', *, *, #26, .T. ) ;
#195 = DIRECTION ( 'NONE',  ( -0.000000000000000000, -0.000000000000000000, 1.000000000000000000 ) ) ;
#196 = FILL_AREA_STYLE ('',( #267 ) ) ;
#197 = STYLED_ITEM ( 'NONE', ( #124 ), #231 ) ;
#198 = DIRECTION ( 'NONE',  ( -1.000000000000000000, 0.000000000000000000, 0.000000000000000000 ) ) ;
#199 = PRESENTATION_LAYER_ASSIGNMENT (  '', '', ( #292 ) ) ;
#200 = CARTESIAN_POINT ( 'NONE',  ( 0.000000000000000000, 0.000000000000000000, -2.160000000000000142 ) ) ;
#201 = ORIENTED_EDGE ( 'NONE', *, *, #23, .F. ) ;
#202 = EDGE_CURVE ( 'NONE', #283, #154, #126, .T. ) ;
#203 =( LENGTH_UNIT ( ) NAMED_UNIT ( * ) SI_UNIT ( .MILLI., .METRE. ) );
#204 = ORIENTED_EDGE ( 'NONE', *, *, #26, .F. ) ;
#205 = EDGE_CURVE ( 'NONE', #61, #154, #64, .T. ) ;
#206 = ORIENTED_EDGE ( 'NONE', *, *, #69, .F. ) ;
#207 = CARTESIAN_POINT ( 'NONE',  ( 0.1833030277982335976, 0.04999999999999994033, -3.180000000000000160 ) ) ;
#208 = PRODUCT_DEFINITION_FORMATION_WITH_SPECIFIED_SOURCE ( 'ANY', '', #288, .NOT_KNOWN. ) ;
#209 = DIRECTION ( 'NONE',  ( 0.000000000000000000, 1.000000000000000000, 0.000000000000000000 ) ) ;
#210 = EDGE_CURVE ( 'NONE', #71, #61, #169, .T. ) ;
#211 = CARTESIAN_POINT ( 'NONE',  ( 0.000000000000000000, 0.000000000000000000, -0.1900000000000000577 ) ) ;
#212 = FACE_OUTER_BOUND ( 'NONE', #139, .T. ) ;
#213 = CIRCLE ( 'NONE', #136, 0.1900000000000000022 ) ;
#214 = FACE_OUTER_BOUND ( 'NONE', #172, .T. ) ;
#215 = AXIS2_PLACEMENT_3D ( 'NONE', #145, #271, #177 ) ;
#216 = SURFACE_SIDE_STYLE ('',( #247 ) ) ;
#217 = ORIENTED_EDGE ( 'NONE', *, *, #23, .T. ) ;
#218 = SURFACE_STYLE_FILL_AREA ( #149 ) ;
#219 = ORIENTED_EDGE ( 'NONE', *, *, #117, .T. ) ;
#220 = DIRECTION ( 'NONE',  ( 0.000000000000000000, -1.000000000000000000, -0.000000000000000000 ) ) ;
#221 = SURFACE_STYLE_USAGE ( .BOTH. , #216 ) ;
#222 = VECTOR ( 'NONE', #195, 1000.000000000000000 ) ;
#223 = DIRECTION ( 'NONE',  ( -0.000000000000000000, -0.000000000000000000, 1.000000000000000000 ) ) ;
#224 = AXIS2_PLACEMENT_3D ( 'NONE', #184, #209, #280 ) ;
#225 = CIRCLE ( 'NONE', #31, 0.1900000000000000022 ) ;
#226 = CARTESIAN_POINT ( 'NONE',  ( 0.1900000000000000022, 0.000000000000000000, -2.160000000000000142 ) ) ;
#227 = VERTEX_POINT ( 'NONE', #80 ) ;
#228 = CARTESIAN_POINT ( 'NONE',  ( 0.000000000000000000, 0.000000000000000000, -2.160000000000000142 ) ) ;
#229 = FACE_OUTER_BOUND ( 'NONE', #239, .T. ) ;
#230 =( GEOMETRIC_REPRESENTATION_CONTEXT ( 3 ) GLOBAL_UNCERTAINTY_ASSIGNED_CONTEXT ( ( #62 ) ) GLOBAL_UNIT_ASSIGNED_CONTEXT ( ( #203, #89, #84 ) ) REPRESENTATION_CONTEXT ( 'NONE', 'WORKASPACE' ) );
#231 = MANIFOLD_SOLID_BREP ( 'Fillet1', #121 ) ;
#232 = DIRECTION ( 'NONE',  ( -1.000000000000000000, 2.587728397942912500E-16, 0.000000000000000000 ) ) ;
#233 = CARTESIAN_POINT ( 'NONE',  ( 0.1833030277982335976, -0.05000000000000005135, -2.160000000000000142 ) ) ;
#234 = EDGE_CURVE ( 'NONE', #71, #227, #279, .T. ) ;
#235 = DIRECTION ( 'NONE',  ( 1.000000000000000000, 0.000000000000000000, -0.000000000000000000 ) ) ;
#236 = ORIENTED_EDGE ( 'NONE', *, *, #205, .F. ) ;
#237 = EDGE_CURVE ( 'NONE', #79, #35, #17, .T. ) ;
#238 = AXIS2_PLACEMENT_3D ( 'NONE', #286, #189, #235 ) ;
#239 = EDGE_LOOP ( 'NONE', ( #76, #32, #115, #179, #170, #204, #140, #116 ) ) ;
#240 = PLANE ( 'NONE',  #162 ) ;
#241 = VERTEX_POINT ( 'NONE', #153 ) ;
#242 = DIRECTION ( 'NONE',  ( 0.000000000000000000, 0.000000000000000000, -1.000000000000000000 ) ) ;
#243 = ADVANCED_FACE ( 'NONE', ( #248 ), #133, .T. ) ;
#244 = CARTESIAN_POINT ( 'NONE',  ( 0.1833030277982335976, -0.05000000000000003053, -3.180000000000000160 ) ) ;
#245 = CIRCLE ( 'NONE', #165, 0.1900000000000000022 ) ;
#246 = COLOUR_RGB ( '',0.7921568627450980005, 0.8196078431372548767, 0.9333333333333333481 ) ;
#247 = SURFACE_STYLE_FILL_AREA ( #196 ) ;
#248 = FACE_OUTER_BOUND ( 'NONE', #168, .T. ) ;
#249 = ORIENTED_EDGE ( 'NONE', *, *, #81, .T. ) ;
#250 = PRODUCT_DEFINITION_CONTEXT ( 'detailed design', #176, 'design' ) ;
#251 = DIRECTION ( 'NONE',  ( 1.000000000000000000, 0.000000000000000000, 0.000000000000000000 ) ) ;
#252 = PRODUCT_DEFINITION_SHAPE ( 'NONE', 'NONE',  #111 ) ;
#253 = VECTOR ( 'NONE', #19, 1000.000000000000000 ) ;
#254 = ORIENTED_EDGE ( 'NONE', *, *, #13, .T. ) ;
#255 = EDGE_CURVE ( 'NONE', #294, #283, #225, .T. ) ;
#256 = ORIENTED_EDGE ( 'NONE', *, *, #210, .T. ) ;
#257 = CARTESIAN_POINT ( 'NONE',  ( 0.1833030277982335976, -0.05000000000000005135, -3.180000000000000160 ) ) ;
#258 = LINE ( 'NONE', #98, #284 ) ;
#259 = ADVANCED_FACE ( 'NONE', ( #229 ), #178, .T. ) ;
#260 = DIRECTION ( 'NONE',  ( 1.000000000000000000, -0.000000000000000000, -0.000000000000000000 ) ) ;
#261 = AXIS2_PLACEMENT_3D ( 'NONE', #167, #3, #96 ) ;
#262 = DIRECTION ( 'NONE',  ( -0.000000000000000000, -0.000000000000000000, -1.000000000000000000 ) ) ;
#263 = AXIS2_PLACEMENT_3D ( 'NONE', #228, #156, #251 ) ;
#264 =( LENGTH_UNIT ( ) NAMED_UNIT ( * ) SI_UNIT ( .MILLI., .METRE. ) );
#265 =( LENGTH_UNIT ( ) NAMED_UNIT ( * ) SI_UNIT ( .MILLI., .METRE. ) );
#266 = ORIENTED_EDGE ( 'NONE', *, *, #205, .T. ) ;
#268 = EDGE_CURVE ( 'NONE', #227, #79, #24, .T. ) ;
#267 = FILL_AREA_STYLE_COLOUR ( '', #65 ) ;
#269 = SURFACE_SIDE_STYLE ('',( #218 ) ) ;
#270 = CARTESIAN_POINT ( 'NONE',  ( 0.000000000000000000, 0.000000000000000000, -0.1900000000000000577 ) ) ;
#271 = DIRECTION ( 'NONE',  ( 0.000000000000000000, -1.000000000000000000, 0.000000000000000000 ) ) ;
#272 = FILL_AREA_STYLE_COLOUR ( '', #246 ) ;
#273 = DIRECTION ( 'NONE',  ( 1.224646799147353207E-16, 1.000000000000000000, -0.000000000000000000 ) ) ;
#274 = ORIENTED_EDGE ( 'NONE', *, *, #47, .T. ) ;
#275 = DIRECTION ( 'NONE',  ( 1.000000000000000000, 0.000000000000000000, 0.000000000000000000 ) ) ;
#276 = VERTEX_POINT ( 'NONE', #109 ) ;
#277 = DIRECTION ( 'NONE',  ( 0.000000000000000000, 0.000000000000000000, 1.000000000000000000 ) ) ;
#278 = AXIS2_PLACEMENT_3D ( 'NONE', #188, #29, #93 ) ;
#279 = CIRCLE ( 'NONE', #143, 0.1900000000000000022 ) ;
#280 = DIRECTION ( 'NONE',  ( 1.000000000000000000, 0.000000000000000000, 0.000000000000000000 ) ) ;
#281 = AXIS2_PLACEMENT_3D ( 'NONE', #127, #296, #287 ) ;
#282 = DIRECTION ( 'NONE',  ( -1.000000000000000000, 2.587728397942912500E-16, 0.000000000000000000 ) ) ;
#283 = VERTEX_POINT ( 'NONE', #301 ) ;
#284 = VECTOR ( 'NONE', #260, 1000.000000000000000 ) ;
#285 = ORIENTED_EDGE ( 'NONE', *, *, #117, .F. ) ;
#286 = CARTESIAN_POINT ( 'NONE',  ( 0.000000000000000000, 0.000000000000000000, -2.160000000000000142 ) ) ;
#287 = DIRECTION ( 'NONE',  ( 1.000000000000000000, 0.000000000000000000, 0.000000000000000000 ) ) ;
#288 = PRODUCT ( 'PE1016-7', 'PE1016-7', '', ( #55 ) ) ;
#289 = EDGE_CURVE ( 'NONE', #185, #73, #213, .T. ) ;
#290 = ORIENTED_EDGE ( 'NONE', *, *, #69, .T. ) ;
#291 = DIRECTION ( 'NONE',  ( -0.000000000000000000, -0.000000000000000000, 1.000000000000000000 ) ) ;
#292 = STYLED_ITEM ( 'NONE', ( #15 ), #38 ) ;
#293 = DIRECTION ( 'NONE',  ( 1.000000000000000000, 0.000000000000000000, 0.000000000000000000 ) ) ;
#294 = VERTEX_POINT ( 'NONE', #60 ) ;
#295 = CARTESIAN_POINT ( 'NONE',  ( -0.1833030277982335976, -0.04999999999999995420, -3.180000000000000160 ) ) ;
#296 = DIRECTION ( 'NONE',  ( 0.000000000000000000, 0.000000000000000000, 1.000000000000000000 ) ) ;
#297 = EDGE_CURVE ( 'NONE', #35, #45, #158, .T. ) ;
#298 = APPLICATION_PROTOCOL_DEFINITION ( 'draft international standard', 'automotive_design', 1998, #68 ) ;
#299 = DIRECTION ( 'NONE',  ( -0.000000000000000000, -0.000000000000000000, -1.000000000000000000 ) ) ;
#300 = AXIS2_PLACEMENT_3D ( 'NONE', #100, #220, #190 ) ;
#301 = CARTESIAN_POINT ( 'NONE',  ( -0.1833030277982335976, 0.04999999999999994033, -3.180000000000000160 ) ) ;
#302 = EDGE_LOOP ( 'NONE', ( #2, #54, #110 ) ) ;
ENDSEC;
END-ISO-10303-21;
