ISO-10303-21;
HEADER;
FILE_DESCRIPTION (( 'STEP AP203' ),
    '1' );
FILE_NAME ('PECX005_3D.step',
    '2021-02-02T15:15:54',
    ( '' ),
    ( '' ),
    'SwSTEP 2.0',
    'SolidWorks 2018',
    '' );
FILE_SCHEMA (( 'CONFIG_CONTROL_DESIGN' ));
ENDSEC;

DATA;
#1 = AXIS2_PLACEMENT_3D ( 'NONE', #24, #220, #80 ) ;
#2 = DIRECTION ( 'NONE',  ( 1.000000000000000000, 0.000000000000000000, 0.000000000000000000 ) ) ;
#3 = DIRECTION ( 'NONE',  ( 1.000000000000000000, 0.000000000000000000, -0.000000000000000000 ) ) ;
#4 = DATE_AND_TIME ( #162, #83 ) ;
#5 = EDGE_LOOP ( 'NONE', ( #160 ) ) ;
#6 = APPROVAL ( #125, 'UNSPECIFIED' ) ;
#7 = CC_DESIGN_PERSON_AND_ORGANIZATION_ASSIGNMENT ( #10, #215, ( #35 ) ) ;
#8 = AXIS2_PLACEMENT_3D ( 'NONE', #138, #112, #213 ) ;
#9 = ADVANCED_FACE ( 'NONE', ( #166 ), #177, .F. ) ;
#10 = PERSON_AND_ORGANIZATION ( #193, #184 ) ;
#11 = FACE_BOUND ( 'NONE', #279, .T. ) ;
#12 = ORIENTED_EDGE ( 'NONE', *, *, #41, .T. ) ;
#13 = CARTESIAN_POINT ( 'NONE',  ( 0.000000000000000000, 2.134256245050205639E-18, -2.000000000000000000 ) ) ;
#14 = ORIENTED_EDGE ( 'NONE', *, *, #41, .F. ) ;
#15 = DIRECTION ( 'NONE',  ( 0.000000000000000000, 0.000000000000000000, 1.000000000000000000 ) ) ;
#16 = CARTESIAN_POINT ( 'NONE',  ( 0.000000000000000000, 0.000000000000000000, -2.000000000000000000 ) ) ;
#17 = DIRECTION ( 'NONE',  ( 0.000000000000000000, 0.000000000000000000, 1.000000000000000000 ) ) ;
#18 = EDGE_CURVE ( 'NONE', #226, #226, #63, .T. ) ;
#19 = FACE_OUTER_BOUND ( 'NONE', #31, .T. ) ;
#20 = CARTESIAN_POINT ( 'NONE',  ( 0.03300000000000000155, 0.000000000000000000, 0.2500000000000000000 ) ) ;
#21 = EDGE_LOOP ( 'NONE', ( #222 ) ) ;
#22 = MECHANICAL_CONTEXT ( 'NONE', #75, 'mechanical' ) ;
#23 = DIRECTION ( 'NONE',  ( -0.000000000000000000, -0.000000000000000000, 1.000000000000000000 ) ) ;
#24 = CARTESIAN_POINT ( 'NONE',  ( 0.000000000000000000, 0.000000000000000000, -2.000000000000000000 ) ) ;
#25 = COORDINATED_UNIVERSAL_TIME_OFFSET ( 8, 0, .BEHIND. ) ;
#26 = APPROVAL_ROLE ( '' ) ;
#27 = AXIS2_PLACEMENT_3D ( 'NONE', #189, #297, #253 ) ;
#28 = CIRCLE ( 'NONE', #260, 0.03300000000000000155 ) ;
#29 = ADVANCED_FACE ( 'NONE', ( #11, #249 ), #155, .F. ) ;
#30 = FACE_OUTER_BOUND ( 'NONE', #128, .T. ) ;
#31 = EDGE_LOOP ( 'NONE', ( #296 ) ) ;
#32 = ADVANCED_FACE ( 'NONE', ( #203 ), #102, .T. ) ;
#33 = CIRCLE ( 'NONE', #157, 0.01149999999999999981 ) ;
#34 = ORIENTED_EDGE ( 'NONE', *, *, #277, .F. ) ;
#35 = PRODUCT_DEFINITION_FORMATION_WITH_SPECIFIED_SOURCE ( 'ANY', '', #298, .NOT_KNOWN. ) ;
#36 = APPROVAL_PERSON_ORGANIZATION ( #190, #64, #259 ) ;
#37 = CYLINDRICAL_SURFACE ( 'NONE', #252, 0.04350000000000001088 ) ;
#38 = DIRECTION ( 'NONE',  ( 1.000000000000000000, 0.000000000000000000, 0.000000000000000000 ) ) ;
#39 = ORIENTED_EDGE ( 'NONE', *, *, #170, .T. ) ;
#40 = CC_DESIGN_APPROVAL ( #6, ( #35 ) ) ;
#41 = EDGE_CURVE ( 'NONE', #244, #244, #209, .T. ) ;
#42 = DIRECTION ( 'NONE',  ( 1.000000000000000000, 0.000000000000000000, 0.000000000000000000 ) ) ;
#43 = AXIS2_PLACEMENT_3D ( 'NONE', #51, #175, #200 ) ;
#44 = DIRECTION ( 'NONE',  ( 0.000000000000000000, 0.000000000000000000, 1.000000000000000000 ) ) ;
#45 =( LENGTH_UNIT ( ) NAMED_UNIT ( * ) SI_UNIT ( $, .METRE. ) );
#46 = CARTESIAN_POINT ( 'NONE',  ( 0.000000000000000000, 0.000000000000000000, 0.000000000000000000 ) ) ;
#47 = AXIS2_PLACEMENT_3D ( 'NONE', #16, #275, #214 ) ;
#48 = DIRECTION ( 'NONE',  ( 0.000000000000000000, 0.000000000000000000, 1.000000000000000000 ) ) ;
#49 = FACE_OUTER_BOUND ( 'NONE', #176, .T. ) ;
#50 = CLOSED_SHELL ( 'NONE', ( #134, #183, #89, #246 ) ) ;
#51 = CARTESIAN_POINT ( 'NONE',  ( 0.000000000000000000, 2.134256245050205639E-18, 0.000000000000000000 ) ) ;
#52 = CARTESIAN_POINT ( 'NONE',  ( 0.000000000000000000, 0.000000000000000000, -2.000000000000000000 ) ) ;
#53 = MANIFOLD_SOLID_BREP ( 'Cut-Extrude2', #84 ) ;
#54 = CC_DESIGN_SECURITY_CLASSIFICATION ( #81, ( #35 ) ) ;
#55 = COORDINATED_UNIVERSAL_TIME_OFFSET ( 8, 0, .BEHIND. ) ;
#56 = ORIENTED_EDGE ( 'NONE', *, *, #271, .T. ) ;
#57 = EDGE_LOOP ( 'NONE', ( #39 ) ) ;
#58 = CIRCLE ( 'NONE', #225, 0.03300000000000000155 ) ;
#59 = APPROVAL ( #234, 'UNSPECIFIED' ) ;
#60 = AXIS2_PLACEMENT_3D ( 'NONE', #93, #251, #2 ) ;
#61 = AXIS2_PLACEMENT_3D ( 'NONE', #77, #23, #301 ) ;
#62 = VERTEX_POINT ( 'NONE', #236 ) ;
#63 = CIRCLE ( 'NONE', #243, 0.01149999999999999981 ) ;
#64 = APPROVAL ( #144, 'UNSPECIFIED' ) ;
#65 = CYLINDRICAL_SURFACE ( 'NONE', #1, 0.01149999999999999981 ) ;
#66 = MANIFOLD_SOLID_BREP ( 'Cut-Extrude1', #50 ) ;
#67 = CARTESIAN_POINT ( 'NONE',  ( 0.000000000000000000, 2.134256245050205639E-18, 0.000000000000000000 ) ) ;
#68 = CARTESIAN_POINT ( 'NONE',  ( 0.000000000000000000, 0.000000000000000000, 0.000000000000000000 ) ) ;
#69 = CALENDAR_DATE ( 2021, 2, 2 ) ;
#70 = EDGE_LOOP ( 'NONE', ( #191 ) ) ;
#71 = CC_DESIGN_DATE_AND_TIME_ASSIGNMENT ( #153, #101, ( #129 ) ) ;
#72 = DIRECTION ( 'NONE',  ( 1.000000000000000000, 0.000000000000000000, 0.000000000000000000 ) ) ;
#73 = PERSON_AND_ORGANIZATION_ROLE ( 'design_supplier' ) ;
#74 = AXIS2_PLACEMENT_3D ( 'NONE', #52, #201, #3 ) ;
#75 = APPLICATION_CONTEXT ( 'configuration controlled 3d designs of mechanical parts and assemblies' ) ;
#76 = EDGE_LOOP ( 'NONE', ( #12 ) ) ;
#77 = CARTESIAN_POINT ( 'NONE',  ( 0.000000000000000000, 0.000000000000000000, -2.000000000000000000 ) ) ;
#78 = DIRECTION ( 'NONE',  ( 1.000000000000000000, 0.000000000000000000, -0.000000000000000000 ) ) ;
#79 = CARTESIAN_POINT ( 'NONE',  ( 0.01149999999999999981, 0.000000000000000000, 0.2500000000000000000 ) ) ;
#80 = DIRECTION ( 'NONE',  ( 1.000000000000000000, 0.000000000000000000, 0.000000000000000000 ) ) ;
#81 = SECURITY_CLASSIFICATION ( '', '', #233 ) ;
#82 = AXIS2_PLACEMENT_3D ( 'NONE', #210, #15, #164 ) ;
#83 = LOCAL_TIME ( 7, 15, 54.00000000000000000, #294 ) ;
#84 = CLOSED_SHELL ( 'NONE', ( #242, #29, #182, #132 ) ) ;
#85 = CYLINDRICAL_SURFACE ( 'NONE', #61, 0.03300000000000000155 ) ;
#86 = FACE_OUTER_BOUND ( 'NONE', #70, .T. ) ;
#87 = EDGE_CURVE ( 'NONE', #264, #264, #33, .T. ) ;
#88 = LOCAL_TIME ( 7, 15, 54.00000000000000000, #25 ) ;
#89 = ADVANCED_FACE ( 'NONE', ( #174, #122 ), #211, .T. ) ;
#90 = CC_DESIGN_APPROVAL ( #64, ( #81 ) ) ;
#91 = FACE_OUTER_BOUND ( 'NONE', #76, .T. ) ;
#92 = DESIGN_CONTEXT ( 'detailed design', #152, 'design' ) ;
#93 = CARTESIAN_POINT ( 'NONE',  ( 0.000000000000000000, 0.000000000000000000, 0.5000000000000000000 ) ) ;
#94 = PRODUCT_RELATED_PRODUCT_CATEGORY ( 'detail', '', ( #298 ) ) ;
#95 = AXIS2_PLACEMENT_3D ( 'NONE', #148, #299, #78 ) ;
#96 = DIRECTION ( 'NONE',  ( 0.000000000000000000, 0.000000000000000000, 1.000000000000000000 ) ) ;
#97 = DIRECTION ( 'NONE',  ( 1.000000000000000000, 0.000000000000000000, 0.000000000000000000 ) ) ;
#98 = CARTESIAN_POINT ( 'NONE',  ( 0.01149999999999999981, 0.000000000000000000, -2.000000000000000000 ) ) ;
#99 = PERSON_AND_ORGANIZATION_ROLE ( 'classification_officer' ) ;
#100 = DIMENSIONAL_EXPONENTS ( 1.000000000000000000, 0.000000000000000000, 0.000000000000000000, 0.000000000000000000, 0.000000000000000000, 0.000000000000000000, 0.000000000000000000 ) ;
#101 = DATE_TIME_ROLE ( 'creation_date' ) ;
#102 = PLANE ( 'NONE',  #27 ) ;
#103 =( NAMED_UNIT ( * ) SI_UNIT ( $, .STERADIAN. ) SOLID_ANGLE_UNIT ( ) );
#104 = PERSON_AND_ORGANIZATION ( #193, #184 ) ;
#105 = DATE_AND_TIME ( #165, #88 ) ;
#106 = AXIS2_PLACEMENT_3D ( 'NONE', #115, #96, #38 ) ;
#107 = FACE_OUTER_BOUND ( 'NONE', #235, .T. ) ;
#108 = ORIENTED_EDGE ( 'NONE', *, *, #18, .T. ) ;
#109 = APPROVAL_DATE_TIME ( #4, #6 ) ;
#110 = FACE_OUTER_BOUND ( 'NONE', #116, .T. ) ;
#111 = LOCAL_TIME ( 7, 15, 54.00000000000000000, #145 ) ;
#112 = DIRECTION ( 'NONE',  ( 0.000000000000000000, 0.000000000000000000, 1.000000000000000000 ) ) ;
#113 = APPROVAL_PERSON_ORGANIZATION ( #208, #59, #149 ) ;
#114 = VERTEX_POINT ( 'NONE', #117 ) ;
#115 = CARTESIAN_POINT ( 'NONE',  ( 0.000000000000000000, 0.000000000000000000, -2.000000000000000000 ) ) ;
#116 = EDGE_LOOP ( 'NONE', ( #274 ) ) ;
#117 = CARTESIAN_POINT ( 'NONE',  ( 0.01149999999999999981, 0.000000000000000000, -2.000000000000000000 ) ) ;
#118 = EDGE_CURVE ( 'NONE', #119, #119, #58, .T. ) ;
#119 = VERTEX_POINT ( 'NONE', #173 ) ;
#120 = APPLICATION_PROTOCOL_DEFINITION ( 'international standard', 'config_control_design', 1994, #152 ) ;
#121 = EDGE_LOOP ( 'NONE', ( #237 ) ) ;
#122 = FACE_OUTER_BOUND ( 'NONE', #181, .T. ) ;
#123 = ORIENTED_EDGE ( 'NONE', *, *, #277, .T. ) ;
#124 = APPLICATION_PROTOCOL_DEFINITION ( 'international standard', 'config_control_design', 1994, #75 ) ;
#125 = APPROVAL_STATUS ( 'not_yet_approved' ) ;
#126 = APPROVAL_DATE_TIME ( #283, #64 ) ;
#127 = VERTEX_POINT ( 'NONE', #197 ) ;
#128 = EDGE_LOOP ( 'NONE', ( #108 ) ) ;
#129 = PRODUCT_DEFINITION ( 'UNKNOWN', '', #35, #92 ) ;
#130 = EDGE_LOOP ( 'NONE', ( #269 ) ) ;
#131 = EDGE_CURVE ( 'NONE', #135, #135, #28, .T. ) ;
#132 = ADVANCED_FACE ( 'NONE', ( #270, #30 ), #159, .F. ) ;
#133 = DATE_AND_TIME ( #202, #111 ) ;
#134 = ADVANCED_FACE ( 'NONE', ( #107, #49 ), #37, .T. ) ;
#135 = VERTEX_POINT ( 'NONE', #20 ) ;
#136 = VERTEX_POINT ( 'NONE', #217 ) ;
#137 = ORIENTED_EDGE ( 'NONE', *, *, #151, .F. ) ;
#138 = CARTESIAN_POINT ( 'NONE',  ( 0.000000000000000000, 2.134256245050205639E-18, -2.000000000000000000 ) ) ;
#139 = APPROVAL_PERSON_ORGANIZATION ( #268, #6, #26 ) ;
#140 = CARTESIAN_POINT ( 'NONE',  ( 0.000000000000000000, 0.000000000000000000, 0.2500000000000000000 ) ) ;
#141 = EDGE_LOOP ( 'NONE', ( #287 ) ) ;
#142 = DIRECTION ( 'NONE',  ( 0.000000000000000000, 0.000000000000000000, 1.000000000000000000 ) ) ;
#143 = CARTESIAN_POINT ( 'NONE',  ( 0.000000000000000000, 0.000000000000000000, -2.000000000000000000 ) ) ;
#144 = APPROVAL_STATUS ( 'not_yet_approved' ) ;
#145 = COORDINATED_UNIVERSAL_TIME_OFFSET ( 8, 0, .BEHIND. ) ;
#146 = CC_DESIGN_PERSON_AND_ORGANIZATION_ASSIGNMENT ( #104, #218, ( #129 ) ) ;
#147 = DIRECTION ( 'NONE',  ( 1.000000000000000000, 0.000000000000000000, 0.000000000000000000 ) ) ;
#148 = CARTESIAN_POINT ( 'NONE',  ( 0.000000000000000000, 0.000000000000000000, -2.000000000000000000 ) ) ;
#149 = APPROVAL_ROLE ( '' ) ;
#150 = DIRECTION ( 'NONE',  ( 0.000000000000000000, 0.000000000000000000, 1.000000000000000000 ) ) ;
#151 = EDGE_CURVE ( 'NONE', #127, #127, #180, .T. ) ;
#152 = APPLICATION_CONTEXT ( 'configuration controlled 3d designs of mechanical parts and assemblies' ) ;
#153 = DATE_AND_TIME ( #263, #212 ) ;
#154 =( NAMED_UNIT ( * ) PLANE_ANGLE_UNIT ( ) SI_UNIT ( $, .RADIAN. ) );
#155 = PLANE ( 'NONE',  #95 ) ;
#156 = MANIFOLD_SOLID_BREP ( 'Boss-Extrude3', #188 ) ;
#157 = AXIS2_PLACEMENT_3D ( 'NONE', #192, #142, #272 ) ;
#158 = ADVANCED_BREP_SHAPE_REPRESENTATION ( 'PECX005_3D', ( #156, #66, #53, #161 ), #291 ) ;
#159 = CYLINDRICAL_SURFACE ( 'NONE', #238, 0.01149999999999999981 ) ;
#160 = ORIENTED_EDGE ( 'NONE', *, *, #87, .T. ) ;
#161 = AXIS2_PLACEMENT_3D ( 'NONE', #46, #282, #280 ) ;
#162 = CALENDAR_DATE ( 2021, 2, 2 ) ;
#163 = CC_DESIGN_PERSON_AND_ORGANIZATION_ASSIGNMENT ( #231, #99, ( #81 ) ) ;
#164 = DIRECTION ( 'NONE',  ( 1.000000000000000000, 0.000000000000000000, -0.000000000000000000 ) ) ;
#165 = CALENDAR_DATE ( 2021, 2, 2 ) ;
#166 = FACE_OUTER_BOUND ( 'NONE', #130, .T. ) ;
#167 = DIRECTION ( 'NONE',  ( -0.000000000000000000, -0.000000000000000000, 1.000000000000000000 ) ) ;
#168 = PLANE ( 'NONE',  #267 ) ;
#169 = DIRECTION ( 'NONE',  ( 1.000000000000000000, 0.000000000000000000, 0.000000000000000000 ) ) ;
#170 = EDGE_CURVE ( 'NONE', #136, #136, #216, .T. ) ;
#171 = AXIS2_PLACEMENT_3D ( 'NONE', #221, #48, #147 ) ;
#172 = CARTESIAN_POINT ( 'NONE',  ( 0.000000000000000000, 0.000000000000000000, 0.2500000000000000000 ) ) ;
#173 = CARTESIAN_POINT ( 'NONE',  ( 0.03300000000000000155, 0.000000000000000000, 0.000000000000000000 ) ) ;
#174 = FACE_BOUND ( 'NONE', #141, .T. ) ;
#175 = DIRECTION ( 'NONE',  ( 0.000000000000000000, 0.000000000000000000, 1.000000000000000000 ) ) ;
#176 = EDGE_LOOP ( 'NONE', ( #207 ) ) ;
#177 = PLANE ( 'NONE',  #74 ) ;
#178 = CARTESIAN_POINT ( 'NONE',  ( 0.03300000000000000155, 0.000000000000000000, -2.000000000000000000 ) ) ;
#179 = LOCAL_TIME ( 7, 15, 54.00000000000000000, #247 ) ;
#180 = CIRCLE ( 'NONE', #8, 0.04350000000000001088 ) ;
#181 = EDGE_LOOP ( 'NONE', ( #56 ) ) ;
#182 = ADVANCED_FACE ( 'NONE', ( #265, #110 ), #168, .T. ) ;
#183 = ADVANCED_FACE ( 'NONE', ( #300, #273 ), #228, .F. ) ;
#184 = ORGANIZATION ( 'UNSPECIFIED', 'UNSPECIFIED', '' ) ;
#185 = CIRCLE ( 'NONE', #60, 0.01149999999999999981 ) ;
#186 = CC_DESIGN_PERSON_AND_ORGANIZATION_ASSIGNMENT ( #288, #73, ( #35 ) ) ;
#187 = VERTEX_POINT ( 'NONE', #195 ) ;
#188 = CLOSED_SHELL ( 'NONE', ( #286, #9, #32 ) ) ;
#189 = CARTESIAN_POINT ( 'NONE',  ( 0.000000000000000000, 0.000000000000000000, 0.5000000000000000000 ) ) ;
#190 = PERSON_AND_ORGANIZATION ( #193, #184 ) ;
#191 = ORIENTED_EDGE ( 'NONE', *, *, #131, .F. ) ;
#192 = CARTESIAN_POINT ( 'NONE',  ( 0.000000000000000000, 0.000000000000000000, -2.000000000000000000 ) ) ;
#193 = PERSON ( 'UNSPECIFIED', 'UNSPECIFIED', 'UNSPECIFIED', ('UNSPECIFIED'), ('UNSPECIFIED'), ('UNSPECIFIED') ) ;
#194 = DIRECTION ( 'NONE',  ( 1.000000000000000000, 0.000000000000000000, -0.000000000000000000 ) ) ;
#195 = CARTESIAN_POINT ( 'NONE',  ( 0.01149999999999999981, 0.000000000000000000, 0.5000000000000000000 ) ) ;
#196 = CC_DESIGN_DATE_AND_TIME_ASSIGNMENT ( #133, #278, ( #81 ) ) ;
#197 = CARTESIAN_POINT ( 'NONE',  ( 0.04350000000000001088, 2.134256245050205639E-18, -2.000000000000000000 ) ) ;
#198 = EDGE_LOOP ( 'NONE', ( #34 ) ) ;
#199 = ORIENTED_EDGE ( 'NONE', *, *, #118, .T. ) ;
#200 = DIRECTION ( 'NONE',  ( 1.000000000000000000, 0.000000000000000000, 0.000000000000000000 ) ) ;
#201 = DIRECTION ( 'NONE',  ( 0.000000000000000000, 0.000000000000000000, 1.000000000000000000 ) ) ;
#202 = CALENDAR_DATE ( 2021, 2, 2 ) ;
#203 = FACE_OUTER_BOUND ( 'NONE', #21, .T. ) ;
#204 = AXIS2_PLACEMENT_3D ( 'NONE', #67, #292, #232 ) ;
#205 = CIRCLE ( 'NONE', #171, 0.01149999999999999981 ) ;
#206 = SHAPE_DEFINITION_REPRESENTATION ( #245, #158 ) ;
#207 = ORIENTED_EDGE ( 'NONE', *, *, #271, .F. ) ;
#208 = PERSON_AND_ORGANIZATION ( #193, #184 ) ;
#209 = CIRCLE ( 'NONE', #106, 0.03300000000000000155 ) ;
#210 = CARTESIAN_POINT ( 'NONE',  ( 0.000000000000000000, 2.134256245050205639E-18, -2.000000000000000000 ) ) ;
#211 = PLANE ( 'NONE',  #204 ) ;
#212 = LOCAL_TIME ( 7, 15, 54.00000000000000000, #55 ) ;
#213 = DIRECTION ( 'NONE',  ( 1.000000000000000000, 0.000000000000000000, 0.000000000000000000 ) ) ;
#214 = DIRECTION ( 'NONE',  ( 1.000000000000000000, 0.000000000000000000, 0.000000000000000000 ) ) ;
#215 = PERSON_AND_ORGANIZATION_ROLE ( 'creator' ) ;
#216 = CIRCLE ( 'NONE', #47, 0.03300000000000000155 ) ;
#217 = CARTESIAN_POINT ( 'NONE',  ( 0.03300000000000000155, 0.000000000000000000, -2.000000000000000000 ) ) ;
#218 = PERSON_AND_ORGANIZATION_ROLE ( 'creator' ) ;
#219 = DIRECTION ( 'NONE',  ( 1.000000000000000000, 0.000000000000000000, 0.000000000000000000 ) ) ;
#220 = DIRECTION ( 'NONE',  ( 0.000000000000000000, 0.000000000000000000, 1.000000000000000000 ) ) ;
#221 = CARTESIAN_POINT ( 'NONE',  ( 0.000000000000000000, 0.000000000000000000, -2.000000000000000000 ) ) ;
#222 = ORIENTED_EDGE ( 'NONE', *, *, #227, .T. ) ;
#223 = PERSON_AND_ORGANIZATION ( #193, #184 ) ;
#224 = UNCERTAINTY_MEASURE_WITH_UNIT (LENGTH_MEASURE( 1.000000000000000082E-05 ), #257, 'distance_accuracy_value', 'NONE');
#225 = AXIS2_PLACEMENT_3D ( 'NONE', #68, #44, #256 ) ;
#226 = VERTEX_POINT ( 'NONE', #79 ) ;
#227 = EDGE_CURVE ( 'NONE', #187, #187, #185, .T. ) ;
#228 = PLANE ( 'NONE',  #82 ) ;
#229 = DIRECTION ( 'NONE',  ( 0.000000000000000000, 0.000000000000000000, 1.000000000000000000 ) ) ;
#230 = CARTESIAN_POINT ( 'NONE',  ( 0.000000000000000000, 0.000000000000000000, -2.000000000000000000 ) ) ;
#231 = PERSON_AND_ORGANIZATION ( #193, #184 ) ;
#232 = DIRECTION ( 'NONE',  ( 1.000000000000000000, 0.000000000000000000, -0.000000000000000000 ) ) ;
#233 = SECURITY_CLASSIFICATION_LEVEL ( 'unclassified' ) ;
#234 = APPROVAL_STATUS ( 'not_yet_approved' ) ;
#235 = EDGE_LOOP ( 'NONE', ( #302 ) ) ;
#236 = CARTESIAN_POINT ( 'NONE',  ( 0.04350000000000001088, 2.134256245050205639E-18, 0.000000000000000000 ) ) ;
#237 = ORIENTED_EDGE ( 'NONE', *, *, #227, .F. ) ;
#238 = AXIS2_PLACEMENT_3D ( 'NONE', #143, #167, #72 ) ;
#239 = AXIS2_PLACEMENT_3D ( 'NONE', #230, #255, #169 ) ;
#240 = FACE_OUTER_BOUND ( 'NONE', #5, .T. ) ;
#241 = CC_DESIGN_PERSON_AND_ORGANIZATION_ASSIGNMENT ( #223, #262, ( #298 ) ) ;
#242 = ADVANCED_FACE ( 'NONE', ( #91, #86 ), #248, .T. ) ;
#243 = AXIS2_PLACEMENT_3D ( 'NONE', #172, #150, #219 ) ;
#244 = VERTEX_POINT ( 'NONE', #178 ) ;
#245 = PRODUCT_DEFINITION_SHAPE ( 'NONE', 'NONE',  #129 ) ;
#246 = ADVANCED_FACE ( 'NONE', ( #19, #258 ), #85, .F. ) ;
#247 = COORDINATED_UNIVERSAL_TIME_OFFSET ( 8, 0, .BEHIND. ) ;
#248 = CYLINDRICAL_SURFACE ( 'NONE', #239, 0.03300000000000000155 ) ;
#249 = FACE_OUTER_BOUND ( 'NONE', #281, .T. ) ;
#250 = EDGE_LOOP ( 'NONE', ( #199 ) ) ;
#251 = DIRECTION ( 'NONE',  ( 0.000000000000000000, 0.000000000000000000, 1.000000000000000000 ) ) ;
#252 = AXIS2_PLACEMENT_3D ( 'NONE', #13, #229, #97 ) ;
#253 = DIRECTION ( 'NONE',  ( 1.000000000000000000, 0.000000000000000000, -0.000000000000000000 ) ) ;
#254 = FACE_OUTER_BOUND ( 'NONE', #121, .T. ) ;
#255 = DIRECTION ( 'NONE',  ( 0.000000000000000000, 0.000000000000000000, 1.000000000000000000 ) ) ;
#256 = DIRECTION ( 'NONE',  ( 1.000000000000000000, 0.000000000000000000, 0.000000000000000000 ) ) ;
#257 =( CONVERSION_BASED_UNIT ( 'INCH', #284 ) LENGTH_UNIT ( ) NAMED_UNIT ( #100 ) );
#258 = FACE_OUTER_BOUND ( 'NONE', #250, .T. ) ;
#259 = APPROVAL_ROLE ( '' ) ;
#260 = AXIS2_PLACEMENT_3D ( 'NONE', #295, #293, #42 ) ;
#261 = EDGE_LOOP ( 'NONE', ( #266 ) ) ;
#262 = PERSON_AND_ORGANIZATION_ROLE ( 'design_owner' ) ;
#263 = CALENDAR_DATE ( 2021, 2, 2 ) ;
#264 = VERTEX_POINT ( 'NONE', #98 ) ;
#265 = FACE_BOUND ( 'NONE', #261, .T. ) ;
#266 = ORIENTED_EDGE ( 'NONE', *, *, #18, .F. ) ;
#267 = AXIS2_PLACEMENT_3D ( 'NONE', #140, #17, #194 ) ;
#268 = PERSON_AND_ORGANIZATION ( #193, #184 ) ;
#269 = ORIENTED_EDGE ( 'NONE', *, *, #87, .F. ) ;
#270 = FACE_OUTER_BOUND ( 'NONE', #198, .T. ) ;
#271 = EDGE_CURVE ( 'NONE', #62, #62, #290, .T. ) ;
#272 = DIRECTION ( 'NONE',  ( 1.000000000000000000, 0.000000000000000000, 0.000000000000000000 ) ) ;
#273 = FACE_OUTER_BOUND ( 'NONE', #285, .T. ) ;
#274 = ORIENTED_EDGE ( 'NONE', *, *, #131, .T. ) ;
#275 = DIRECTION ( 'NONE',  ( 0.000000000000000000, 0.000000000000000000, 1.000000000000000000 ) ) ;
#276 = APPROVAL_DATE_TIME ( #105, #59 ) ;
#277 = EDGE_CURVE ( 'NONE', #114, #114, #205, .T. ) ;
#278 = DATE_TIME_ROLE ( 'classification_date' ) ;
#279 = EDGE_LOOP ( 'NONE', ( #123 ) ) ;
#280 = DIRECTION ( 'NONE',  ( 1.000000000000000000, 0.000000000000000000, 0.000000000000000000 ) ) ;
#281 = EDGE_LOOP ( 'NONE', ( #14 ) ) ;
#282 = DIRECTION ( 'NONE',  ( 0.000000000000000000, 0.000000000000000000, 1.000000000000000000 ) ) ;
#283 = DATE_AND_TIME ( #69, #179 ) ;
#284 = LENGTH_MEASURE_WITH_UNIT ( LENGTH_MEASURE( 0.02539999999999999897 ), #45 );
#285 = EDGE_LOOP ( 'NONE', ( #137 ) ) ;
#286 = ADVANCED_FACE ( 'NONE', ( #240, #254 ), #65, .T. ) ;
#287 = ORIENTED_EDGE ( 'NONE', *, *, #118, .F. ) ;
#288 = PERSON_AND_ORGANIZATION ( #193, #184 ) ;
#289 = CC_DESIGN_APPROVAL ( #59, ( #129 ) ) ;
#290 = CIRCLE ( 'NONE', #43, 0.04350000000000001088 ) ;
#291 =( GEOMETRIC_REPRESENTATION_CONTEXT ( 3 ) GLOBAL_UNCERTAINTY_ASSIGNED_CONTEXT ( ( #224 ) ) GLOBAL_UNIT_ASSIGNED_CONTEXT ( ( #257, #154, #103 ) ) REPRESENTATION_CONTEXT ( 'NONE', 'WORKASPACE' ) );
#292 = DIRECTION ( 'NONE',  ( 0.000000000000000000, 0.000000000000000000, 1.000000000000000000 ) ) ;
#293 = DIRECTION ( 'NONE',  ( 0.000000000000000000, 0.000000000000000000, 1.000000000000000000 ) ) ;
#294 = COORDINATED_UNIVERSAL_TIME_OFFSET ( 8, 0, .BEHIND. ) ;
#295 = CARTESIAN_POINT ( 'NONE',  ( 0.000000000000000000, 0.000000000000000000, 0.2500000000000000000 ) ) ;
#296 = ORIENTED_EDGE ( 'NONE', *, *, #170, .F. ) ;
#297 = DIRECTION ( 'NONE',  ( 0.000000000000000000, 0.000000000000000000, 1.000000000000000000 ) ) ;
#298 = PRODUCT ( 'PECX005_3D', 'PECX005_3D', '', ( #22 ) ) ;
#299 = DIRECTION ( 'NONE',  ( 0.000000000000000000, 0.000000000000000000, 1.000000000000000000 ) ) ;
#300 = FACE_BOUND ( 'NONE', #57, .T. ) ;
#301 = DIRECTION ( 'NONE',  ( 1.000000000000000000, 0.000000000000000000, 0.000000000000000000 ) ) ;
#302 = ORIENTED_EDGE ( 'NONE', *, *, #151, .T. ) ;
ENDSEC;
END-ISO-10303-21;
