ISO-10303-21;
HEADER;
FILE_DESCRIPTION (( 'STEP AP203' ),
    '1' );
FILE_NAME ('RG174A-U_3D.step',
    '2021-04-15T21:06:30',
    ( '' ),
    ( '' ),
    'SwSTEP 2.0',
    'SolidWorks 2020',
    '' );
FILE_SCHEMA (( 'CONFIG_CONTROL_DESIGN' ));
ENDSEC;

DATA;
#1 = DIRECTION ( 'NONE',  ( 1.000000000000000000, 0.000000000000000000, 0.000000000000000000 ) ) ;
#2 = VERTEX_POINT ( 'NONE', #237 ) ;
#3 = DIRECTION ( 'NONE',  ( -1.000000000000000000, 0.000000000000000000, 0.000000000000000000 ) ) ;
#4 = APPROVAL_ROLE ( '' ) ;
#5 = CARTESIAN_POINT ( 'NONE',  ( 0.000000000000000000, 0.000000000000000000, 1.140000000000000346 ) ) ;
#6 = CIRCLE ( 'NONE', #152, 0.03899999999999999994 ) ;
#7 = DIRECTION ( 'NONE',  ( -1.000000000000000000, 0.000000000000000000, 0.000000000000000000 ) ) ;
#8 = ORIENTED_EDGE ( 'NONE', *, *, #210, .F. ) ;
#9 = VERTEX_POINT ( 'NONE', #34 ) ;
#10 = CYLINDRICAL_SURFACE ( 'NONE', #110, 0.03899999999999999994 ) ;
#11 = ADVANCED_BREP_SHAPE_REPRESENTATION ( 'RG174A-U_3D', ( #117, #381, #256, #254, #31 ), #196 ) ;
#12 = FACE_OUTER_BOUND ( 'NONE', #320, .T. ) ;
#13 = ORIENTED_EDGE ( 'NONE', *, *, #72, .F. ) ;
#14 = DIRECTION ( 'NONE',  ( -1.000000000000000000, 0.000000000000000000, 0.000000000000000000 ) ) ;
#15 = ORIENTED_EDGE ( 'NONE', *, *, #127, .F. ) ;
#16 = DATE_AND_TIME ( #247, #288 ) ;
#17 = DIRECTION ( 'NONE',  ( 0.000000000000000000, 0.000000000000000000, 1.000000000000000000 ) ) ;
#18 = CLOSED_SHELL ( 'NONE', ( #58, #314, #170 ) ) ;
#19 = CC_DESIGN_PERSON_AND_ORGANIZATION_ASSIGNMENT ( #137, #67, ( #230 ) ) ;
#20 = ORIENTED_EDGE ( 'NONE', *, *, #155, .F. ) ;
#21 = DIRECTION ( 'NONE',  ( -0.000000000000000000, -0.000000000000000000, -1.000000000000000000 ) ) ;
#22 = VERTEX_POINT ( 'NONE', #208 ) ;
#23 = ADVANCED_FACE ( 'NONE', ( #141, #350 ), #169, .T. ) ;
#24 = DIRECTION ( 'NONE',  ( 1.000000000000000000, 0.000000000000000000, -0.000000000000000000 ) ) ;
#25 = CARTESIAN_POINT ( 'NONE',  ( 0.000000000000000000, 0.000000000000000000, 1.140000000000000346 ) ) ;
#26 = PRODUCT ( 'RG174A-U_3D', 'RG174A-U_3D', '', ( #93 ) ) ;
#27 = ADVANCED_FACE ( 'NONE', ( #195, #106 ), #263, .F. ) ;
#28 = EDGE_LOOP ( 'NONE', ( #261 ) ) ;
#29 = CIRCLE ( 'NONE', #276, 0.02999999999999999889 ) ;
#30 = CARTESIAN_POINT ( 'NONE',  ( 0.000000000000000000, 0.000000000000000000, -0.2999999999999999889 ) ) ;
#31 = AXIS2_PLACEMENT_3D ( 'NONE', #84, #144, #364 ) ;
#32 = EDGE_CURVE ( 'NONE', #39, #39, #349, .T. ) ;
#33 = DIRECTION ( 'NONE',  ( -1.000000000000000000, 0.000000000000000000, 0.000000000000000000 ) ) ;
#34 = CARTESIAN_POINT ( 'NONE',  ( -0.02999999999999999889, 0.000000000000000000, 1.140000000000000346 ) ) ;
#35 = DIRECTION ( 'NONE',  ( -1.000000000000000000, 0.000000000000000000, 0.000000000000000000 ) ) ;
#36 = EDGE_CURVE ( 'NONE', #363, #363, #337, .T. ) ;
#37 = DIRECTION ( 'NONE',  ( 0.000000000000000000, 0.000000000000000000, -1.000000000000000000 ) ) ;
#38 = AXIS2_PLACEMENT_3D ( 'NONE', #206, #57, #86 ) ;
#39 = VERTEX_POINT ( 'NONE', #60 ) ;
#40 = PLANE ( 'NONE',  #215 ) ;
#41 = ORIENTED_EDGE ( 'NONE', *, *, #354, .F. ) ;
#42 = DATE_AND_TIME ( #185, #355 ) ;
#43 = FACE_OUTER_BOUND ( 'NONE', #327, .T. ) ;
#44 = ORIENTED_EDGE ( 'NONE', *, *, #200, .F. ) ;
#45 = CIRCLE ( 'NONE', #224, 0.05500000000000000028 ) ;
#46 = CARTESIAN_POINT ( 'NONE',  ( 0.000000000000000000, 0.000000000000000000, 0.000000000000000000 ) ) ;
#47 = EDGE_LOOP ( 'NONE', ( #258 ) ) ;
#48 = DIRECTION ( 'NONE',  ( -0.000000000000000000, -0.000000000000000000, -1.000000000000000000 ) ) ;
#49 = CIRCLE ( 'NONE', #76, 0.03899999999999999994 ) ;
#50 = EDGE_LOOP ( 'NONE', ( #77 ) ) ;
#51 = DIRECTION ( 'NONE',  ( -1.000000000000000000, 0.000000000000000000, -0.000000000000000000 ) ) ;
#52 = DIMENSIONAL_EXPONENTS ( 1.000000000000000000, 0.000000000000000000, 0.000000000000000000, 0.000000000000000000, 0.000000000000000000, 0.000000000000000000, 0.000000000000000000 ) ;
#53 = AXIS2_PLACEMENT_3D ( 'NONE', #187, #97, #190 ) ;
#54 = CC_DESIGN_PERSON_AND_ORGANIZATION_ASSIGNMENT ( #371, #154, ( #79 ) ) ;
#55 = DATE_AND_TIME ( #203, #74 ) ;
#56 = DIRECTION ( 'NONE',  ( 1.000000000000000000, 0.000000000000000000, 0.000000000000000000 ) ) ;
#57 = DIRECTION ( 'NONE',  ( 0.000000000000000000, 0.000000000000000000, -1.000000000000000000 ) ) ;
#58 = ADVANCED_FACE ( 'NONE', ( #140 ), #138, .T. ) ;
#59 = CARTESIAN_POINT ( 'NONE',  ( 0.05500000000000000028, 0.000000000000000000, 0.000000000000000000 ) ) ;
#60 = CARTESIAN_POINT ( 'NONE',  ( 0.009500000000000001499, 0.000000000000000000, 1.140000000000000346 ) ) ;
#61 = APPROVAL_PERSON_ORGANIZATION ( #223, #266, #287 ) ;
#62 = DIRECTION ( 'NONE',  ( -1.000000000000000000, 0.000000000000000000, 0.000000000000000000 ) ) ;
#63 = COORDINATED_UNIVERSAL_TIME_OFFSET ( 8, 0, .BEHIND. ) ;
#64 = DIRECTION ( 'NONE',  ( -1.000000000000000000, 0.000000000000000000, 0.000000000000000000 ) ) ;
#65 = DIRECTION ( 'NONE',  ( 1.000000000000000000, 0.000000000000000000, 0.000000000000000000 ) ) ;
#66 = EDGE_LOOP ( 'NONE', ( #216 ) ) ;
#67 = PERSON_AND_ORGANIZATION_ROLE ( 'classification_officer' ) ;
#68 = EDGE_CURVE ( 'NONE', #309, #309, #125, .T. ) ;
#69 = CYLINDRICAL_SURFACE ( 'NONE', #197, 0.02999999999999999889 ) ;
#70 = EDGE_LOOP ( 'NONE', ( #8 ) ) ;
#71 = AXIS2_PLACEMENT_3D ( 'NONE', #173, #359, #56 ) ;
#72 = EDGE_CURVE ( 'NONE', #277, #277, #366, .T. ) ;
#73 = ORIENTED_EDGE ( 'NONE', *, *, #68, .T. ) ;
#74 = LOCAL_TIME ( 14, 6, 30.00000000000000000, #358 ) ;
#75 = ORIENTED_EDGE ( 'NONE', *, *, #281, .F. ) ;
#76 = AXIS2_PLACEMENT_3D ( 'NONE', #133, #241, #317 ) ;
#77 = ORIENTED_EDGE ( 'NONE', *, *, #200, .T. ) ;
#78 = DIRECTION ( 'NONE',  ( 0.000000000000000000, 0.000000000000000000, 1.000000000000000000 ) ) ;
#79 = PRODUCT_DEFINITION_FORMATION_WITH_SPECIFIED_SOURCE ( 'ANY', '', #26, .NOT_KNOWN. ) ;
#80 = ORIENTED_EDGE ( 'NONE', *, *, #379, .T. ) ;
#81 = APPROVAL ( #362, 'UNSPECIFIED' ) ;
#82 = FACE_OUTER_BOUND ( 'NONE', #374, .T. ) ;
#83 = CARTESIAN_POINT ( 'NONE',  ( 0.000000000000000000, 0.000000000000000000, 1.140000000000000346 ) ) ;
#84 = CARTESIAN_POINT ( 'NONE',  ( 0.000000000000000000, 0.000000000000000000, 0.000000000000000000 ) ) ;
#85 = ADVANCED_FACE ( 'NONE', ( #326, #293 ), #228, .T. ) ;
#86 = DIRECTION ( 'NONE',  ( -1.000000000000000000, 0.000000000000000000, -0.000000000000000000 ) ) ;
#87 =( NAMED_UNIT ( * ) PLANE_ANGLE_UNIT ( ) SI_UNIT ( $, .RADIAN. ) );
#88 = AXIS2_PLACEMENT_3D ( 'NONE', #352, #328, #51 ) ;
#89 = UNCERTAINTY_MEASURE_WITH_UNIT (LENGTH_MEASURE( 1.000000000000000082E-05 ), #304, 'distance_accuracy_value', 'NONE');
#90 = FACE_BOUND ( 'NONE', #131, .T. ) ;
#91 = DATE_AND_TIME ( #269, #165 ) ;
#92 = DIRECTION ( 'NONE',  ( 0.000000000000000000, 0.000000000000000000, 1.000000000000000000 ) ) ;
#93 = MECHANICAL_CONTEXT ( 'NONE', #198, 'mechanical' ) ;
#94 = VERTEX_POINT ( 'NONE', #174 ) ;
#95 = AXIS2_PLACEMENT_3D ( 'NONE', #212, #158, #161 ) ;
#96 = ORIENTED_EDGE ( 'NONE', *, *, #32, .F. ) ;
#97 = DIRECTION ( 'NONE',  ( 0.000000000000000000, 0.000000000000000000, -1.000000000000000000 ) ) ;
#98 = ADVANCED_FACE ( 'NONE', ( #175, #204 ), #113, .T. ) ;
#99 = FACE_OUTER_BOUND ( 'NONE', #159, .T. ) ;
#100 = DIRECTION ( 'NONE',  ( 0.000000000000000000, 0.000000000000000000, -1.000000000000000000 ) ) ;
#101 = ADVANCED_FACE ( 'NONE', ( #82, #382 ), #332, .T. ) ;
#102 = CIRCLE ( 'NONE', #329, 0.03899999999999999994 ) ;
#103 = CARTESIAN_POINT ( 'NONE',  ( 0.000000000000000000, 0.000000000000000000, -0.4499999999999999556 ) ) ;
#104 = ORIENTED_EDGE ( 'NONE', *, *, #172, .F. ) ;
#105 = DIRECTION ( 'NONE',  ( 0.000000000000000000, 0.000000000000000000, -1.000000000000000000 ) ) ;
#106 = FACE_OUTER_BOUND ( 'NONE', #376, .T. ) ;
#107 = CC_DESIGN_APPROVAL ( #266, ( #230 ) ) ;
#108 = DIRECTION ( 'NONE',  ( 0.000000000000000000, 0.000000000000000000, 1.000000000000000000 ) ) ;
#109 = AXIS2_PLACEMENT_3D ( 'NONE', #25, #199, #290 ) ;
#110 = AXIS2_PLACEMENT_3D ( 'NONE', #372, #123, #14 ) ;
#111 = FACE_OUTER_BOUND ( 'NONE', #347, .T. ) ;
#112 = PERSON_AND_ORGANIZATION ( #232, #246 ) ;
#113 = CYLINDRICAL_SURFACE ( 'NONE', #119, 0.02999999999999999889 ) ;
#114 = VERTEX_POINT ( 'NONE', #59 ) ;
#115 = CARTESIAN_POINT ( 'NONE',  ( 0.000000000000000000, 0.000000000000000000, 1.140000000000000346 ) ) ;
#116 = APPROVAL_ROLE ( '' ) ;
#117 = MANIFOLD_SOLID_BREP ( 'Cut-Extrude1', #267 ) ;
#118 = DIRECTION ( 'NONE',  ( 0.000000000000000000, 0.000000000000000000, 1.000000000000000000 ) ) ;
#119 = AXIS2_PLACEMENT_3D ( 'NONE', #30, #298, #1 ) ;
#120 = FACE_OUTER_BOUND ( 'NONE', #70, .T. ) ;
#121 = VERTEX_POINT ( 'NONE', #181 ) ;
#122 = APPROVAL ( #148, 'UNSPECIFIED' ) ;
#123 = DIRECTION ( 'NONE',  ( 0.000000000000000000, 0.000000000000000000, -1.000000000000000000 ) ) ;
#124 = EDGE_LOOP ( 'NONE', ( #104 ) ) ;
#125 = CIRCLE ( 'NONE', #231, 0.009500000000000001499 ) ;
#126 = CYLINDRICAL_SURFACE ( 'NONE', #167, 0.009500000000000001499 ) ;
#127 = EDGE_CURVE ( 'NONE', #94, #94, #29, .T. ) ;
#128 = EDGE_LOOP ( 'NONE', ( #193 ) ) ;
#129 = SECURITY_CLASSIFICATION_LEVEL ( 'unclassified' ) ;
#130 = CARTESIAN_POINT ( 'NONE',  ( 0.000000000000000000, 0.000000000000000000, -0.2999999999999999889 ) ) ;
#131 = EDGE_LOOP ( 'NONE', ( #136 ) ) ;
#132 = ADVANCED_FACE ( 'NONE', ( #356, #201 ), #274, .T. ) ;
#133 = CARTESIAN_POINT ( 'NONE',  ( 0.000000000000000000, 0.000000000000000000, 1.140000000000000346 ) ) ;
#134 = EDGE_LOOP ( 'NONE', ( #345 ) ) ;
#135 = APPROVAL_PERSON_ORGANIZATION ( #176, #122, #4 ) ;
#136 = ORIENTED_EDGE ( 'NONE', *, *, #68, .F. ) ;
#137 = PERSON_AND_ORGANIZATION ( #232, #246 ) ;
#138 = PLANE ( 'NONE',  #143 ) ;
#139 = DIRECTION ( 'NONE',  ( -1.000000000000000000, 0.000000000000000000, 0.000000000000000000 ) ) ;
#140 = FACE_OUTER_BOUND ( 'NONE', #282, .T. ) ;
#141 = FACE_BOUND ( 'NONE', #342, .T. ) ;
#142 = ADVANCED_FACE ( 'NONE', ( #146, #111 ), #357, .F. ) ;
#143 = AXIS2_PLACEMENT_3D ( 'NONE', #229, #264, #24 ) ;
#144 = DIRECTION ( 'NONE',  ( 0.000000000000000000, 0.000000000000000000, 1.000000000000000000 ) ) ;
#145 = AXIS2_PLACEMENT_3D ( 'NONE', #46, #17, #257 ) ;
#146 = FACE_OUTER_BOUND ( 'NONE', #242, .T. ) ;
#147 = VERTEX_POINT ( 'NONE', #211 ) ;
#148 = APPROVAL_STATUS ( 'not_yet_approved' ) ;
#149 = DIRECTION ( 'NONE',  ( -0.000000000000000000, -0.000000000000000000, -1.000000000000000000 ) ) ;
#150 = CC_DESIGN_DATE_AND_TIME_ASSIGNMENT ( #55, #273, ( #301 ) ) ;
#151 =( NAMED_UNIT ( * ) SI_UNIT ( $, .STERADIAN. ) SOLID_ANGLE_UNIT ( ) );
#152 = AXIS2_PLACEMENT_3D ( 'NONE', #83, #271, #236 ) ;
#153 = CARTESIAN_POINT ( 'NONE',  ( -0.009500000000000001499, 0.000000000000000000, -0.2999999999999999889 ) ) ;
#154 = PERSON_AND_ORGANIZATION_ROLE ( 'creator' ) ;
#155 = EDGE_CURVE ( 'NONE', #22, #22, #6, .T. ) ;
#156 = ORIENTED_EDGE ( 'NONE', *, *, #379, .F. ) ;
#157 = COORDINATED_UNIVERSAL_TIME_OFFSET ( 8, 0, .BEHIND. ) ;
#158 = DIRECTION ( 'NONE',  ( -0.000000000000000000, -0.000000000000000000, -1.000000000000000000 ) ) ;
#159 = EDGE_LOOP ( 'NONE', ( #156 ) ) ;
#160 = CC_DESIGN_PERSON_AND_ORGANIZATION_ASSIGNMENT ( #214, #240, ( #26 ) ) ;
#161 = DIRECTION ( 'NONE',  ( -1.000000000000000000, 0.000000000000000000, 0.000000000000000000 ) ) ;
#162 = ORIENTED_EDGE ( 'NONE', *, *, #155, .T. ) ;
#163 = ORIENTED_EDGE ( 'NONE', *, *, #36, .F. ) ;
#164 = APPROVAL_DATE_TIME ( #42, #122 ) ;
#165 = LOCAL_TIME ( 14, 6, 30.00000000000000000, #63 ) ;
#166 = AXIS2_PLACEMENT_3D ( 'NONE', #227, #21, #291 ) ;
#167 = AXIS2_PLACEMENT_3D ( 'NONE', #341, #221, #7 ) ;
#168 = DIRECTION ( 'NONE',  ( 1.000000000000000000, 0.000000000000000000, 0.000000000000000000 ) ) ;
#169 = PLANE ( 'NONE',  #182 ) ;
#170 = ADVANCED_FACE ( 'NONE', ( #177 ), #235, .T. ) ;
#171 = ORIENTED_EDGE ( 'NONE', *, *, #319, .T. ) ;
#172 = EDGE_CURVE ( 'NONE', #147, #147, #192, .T. ) ;
#173 = CARTESIAN_POINT ( 'NONE',  ( 0.000000000000000000, 0.000000000000000000, -0.2999999999999999889 ) ) ;
#174 = CARTESIAN_POINT ( 'NONE',  ( -0.02999999999999999889, 0.000000000000000000, -0.1499999999999999944 ) ) ;
#175 = FACE_OUTER_BOUND ( 'NONE', #28, .T. ) ;
#176 = PERSON_AND_ORGANIZATION ( #232, #246 ) ;
#177 = FACE_OUTER_BOUND ( 'NONE', #134, .T. ) ;
#178 = APPROVAL_DATE_TIME ( #91, #81 ) ;
#179 = CARTESIAN_POINT ( 'NONE',  ( 0.009500000000000001499, 0.000000000000000000, 1.140000000000000346 ) ) ;
#180 = CC_DESIGN_APPROVAL ( #122, ( #79 ) ) ;
#181 = CARTESIAN_POINT ( 'NONE',  ( -0.03899999999999999994, 0.000000000000000000, 1.140000000000000346 ) ) ;
#182 = AXIS2_PLACEMENT_3D ( 'NONE', #380, #78, #292 ) ;
#183 = CIRCLE ( 'NONE', #308, 0.02999999999999999889 ) ;
#184 = DIRECTION ( 'NONE',  ( 0.000000000000000000, 0.000000000000000000, -1.000000000000000000 ) ) ;
#185 = CALENDAR_DATE ( 2021, 15, 4 ) ;
#186 = CARTESIAN_POINT ( 'NONE',  ( 0.000000000000000000, 0.000000000000000000, 0.000000000000000000 ) ) ;
#187 = CARTESIAN_POINT ( 'NONE',  ( 0.000000000000000000, 0.000000000000000000, -0.2999999999999999889 ) ) ;
#188 = ORIENTED_EDGE ( 'NONE', *, *, #281, .T. ) ;
#189 = DATE_AND_TIME ( #312, #213 ) ;
#190 = DIRECTION ( 'NONE',  ( -1.000000000000000000, 0.000000000000000000, -0.000000000000000000 ) ) ;
#191 = EDGE_LOOP ( 'NONE', ( #171 ) ) ;
#192 = CIRCLE ( 'NONE', #239, 0.03899999999999999994 ) ;
#193 = ORIENTED_EDGE ( 'NONE', *, *, #36, .T. ) ;
#194 = COORDINATED_UNIVERSAL_TIME_OFFSET ( 8, 0, .BEHIND. ) ;
#195 = FACE_BOUND ( 'NONE', #191, .T. ) ;
#196 =( GEOMETRIC_REPRESENTATION_CONTEXT ( 3 ) GLOBAL_UNCERTAINTY_ASSIGNED_CONTEXT ( ( #89 ) ) GLOBAL_UNIT_ASSIGNED_CONTEXT ( ( #304, #87, #151 ) ) REPRESENTATION_CONTEXT ( 'NONE', 'WORKASPACE' ) );
#197 = AXIS2_PLACEMENT_3D ( 'NONE', #280, #100, #64 ) ;
#198 = APPLICATION_CONTEXT ( 'configuration controlled 3d designs of mechanical parts and assemblies' ) ;
#199 = DIRECTION ( 'NONE',  ( 0.000000000000000000, 0.000000000000000000, -1.000000000000000000 ) ) ;
#200 = EDGE_CURVE ( 'NONE', #2, #2, #45, .T. ) ;
#201 = FACE_OUTER_BOUND ( 'NONE', #311, .T. ) ;
#202 = PRODUCT_RELATED_PRODUCT_CATEGORY ( 'detail', '', ( #26 ) ) ;
#203 = CALENDAR_DATE ( 2021, 15, 4 ) ;
#204 = FACE_OUTER_BOUND ( 'NONE', #377, .T. ) ;
#205 = ADVANCED_FACE ( 'NONE', ( #361, #90 ), #295, .T. ) ;
#206 = CARTESIAN_POINT ( 'NONE',  ( 0.000000000000000000, 0.000000000000000000, -0.4499999999999999556 ) ) ;
#207 = AXIS2_PLACEMENT_3D ( 'NONE', #209, #108, #233 ) ;
#208 = CARTESIAN_POINT ( 'NONE',  ( -0.03899999999999999994, 0.000000000000000000, 1.140000000000000346 ) ) ;
#209 = CARTESIAN_POINT ( 'NONE',  ( 0.000000000000000000, 0.000000000000000000, 1.140000000000000346 ) ) ;
#210 = EDGE_CURVE ( 'NONE', #302, #302, #102, .T. ) ;
#211 = CARTESIAN_POINT ( 'NONE',  ( -0.03899999999999999994, 0.000000000000000000, 0.000000000000000000 ) ) ;
#212 = CARTESIAN_POINT ( 'NONE',  ( 0.000000000000000000, 0.000000000000000000, 1.140000000000000346 ) ) ;
#213 = LOCAL_TIME ( 14, 6, 30.00000000000000000, #194 ) ;
#214 = PERSON_AND_ORGANIZATION ( #232, #246 ) ;
#215 = AXIS2_PLACEMENT_3D ( 'NONE', #186, #92, #315 ) ;
#216 = ORIENTED_EDGE ( 'NONE', *, *, #319, .F. ) ;
#217 = PERSON_AND_ORGANIZATION_ROLE ( 'design_supplier' ) ;
#218 = DIRECTION ( 'NONE',  ( 0.000000000000000000, 0.000000000000000000, -1.000000000000000000 ) ) ;
#219 = APPLICATION_CONTEXT ( 'configuration controlled 3d designs of mechanical parts and assemblies' ) ;
#220 = FACE_OUTER_BOUND ( 'NONE', #265, .T. ) ;
#221 = DIRECTION ( 'NONE',  ( 0.000000000000000000, 0.000000000000000000, -1.000000000000000000 ) ) ;
#222 = ORIENTED_EDGE ( 'NONE', *, *, #210, .T. ) ;
#223 = PERSON_AND_ORGANIZATION ( #232, #246 ) ;
#224 = AXIS2_PLACEMENT_3D ( 'NONE', #5, #118, #238 ) ;
#225 = EDGE_LOOP ( 'NONE', ( #13 ) ) ;
#226 = DIRECTION ( 'NONE',  ( -1.000000000000000000, 0.000000000000000000, 0.000000000000000000 ) ) ;
#227 = CARTESIAN_POINT ( 'NONE',  ( 0.000000000000000000, 0.000000000000000000, 1.140000000000000346 ) ) ;
#228 = PLANE ( 'NONE',  #88 ) ;
#229 = CARTESIAN_POINT ( 'NONE',  ( 0.000000000000000000, 0.000000000000000000, 1.140000000000000346 ) ) ;
#230 = SECURITY_CLASSIFICATION ( '', '', #129 ) ;
#231 = AXIS2_PLACEMENT_3D ( 'NONE', #378, #353, #139 ) ;
#232 = PERSON ( 'UNSPECIFIED', 'UNSPECIFIED', 'UNSPECIFIED', ('UNSPECIFIED'), ('UNSPECIFIED'), ('UNSPECIFIED') ) ;
#233 = DIRECTION ( 'NONE',  ( 1.000000000000000000, 0.000000000000000000, -0.000000000000000000 ) ) ;
#234 = PERSON_AND_ORGANIZATION_ROLE ( 'creator' ) ;
#235 = PLANE ( 'NONE',  #38 ) ;
#236 = DIRECTION ( 'NONE',  ( -1.000000000000000000, 0.000000000000000000, 0.000000000000000000 ) ) ;
#237 = CARTESIAN_POINT ( 'NONE',  ( 0.05500000000000000028, 0.000000000000000000, 1.140000000000000346 ) ) ;
#238 = DIRECTION ( 'NONE',  ( 1.000000000000000000, 0.000000000000000000, 0.000000000000000000 ) ) ;
#239 = AXIS2_PLACEMENT_3D ( 'NONE', #334, #303, #35 ) ;
#240 = PERSON_AND_ORGANIZATION_ROLE ( 'design_owner' ) ;
#241 = DIRECTION ( 'NONE',  ( 0.000000000000000000, 0.000000000000000000, -1.000000000000000000 ) ) ;
#242 = EDGE_LOOP ( 'NONE', ( #73 ) ) ;
#243 =( LENGTH_UNIT ( ) NAMED_UNIT ( * ) SI_UNIT ( $, .METRE. ) );
#244 = DESIGN_CONTEXT ( 'detailed design', #219, 'design' ) ;
#245 = CARTESIAN_POINT ( 'NONE',  ( 0.000000000000000000, 0.000000000000000000, 1.140000000000000346 ) ) ;
#246 = ORGANIZATION ( 'UNSPECIFIED', 'UNSPECIFIED', '' ) ;
#247 = CALENDAR_DATE ( 2021, 15, 4 ) ;
#248 = CLOSED_SHELL ( 'NONE', ( #270, #27, #255, #85 ) ) ;
#249 = CIRCLE ( 'NONE', #339, 0.02999999999999999889 ) ;
#250 = CARTESIAN_POINT ( 'NONE',  ( 0.000000000000000000, 0.000000000000000000, 1.140000000000000346 ) ) ;
#251 = ORIENTED_EDGE ( 'NONE', *, *, #172, .T. ) ;
#252 = FACE_OUTER_BOUND ( 'NONE', #128, .T. ) ;
#253 = APPROVAL_STATUS ( 'not_yet_approved' ) ;
#254 = MANIFOLD_SOLID_BREP ( 'Boss-Extrude4', #18 ) ;
#255 = ADVANCED_FACE ( 'NONE', ( #306, #284 ), #69, .F. ) ;
#256 = MANIFOLD_SOLID_BREP ( 'Boss-Extrude3', #324 ) ;
#257 = DIRECTION ( 'NONE',  ( 1.000000000000000000, 0.000000000000000000, 0.000000000000000000 ) ) ;
#258 = ORIENTED_EDGE ( 'NONE', *, *, #32, .T. ) ;
#259 = COORDINATED_UNIVERSAL_TIME_OFFSET ( 8, 0, .BEHIND. ) ;
#260 = PRODUCT_DEFINITION_SHAPE ( 'NONE', 'NONE',  #301 ) ;
#261 = ORIENTED_EDGE ( 'NONE', *, *, #285, .F. ) ;
#262 = EDGE_LOOP ( 'NONE', ( #15 ) ) ;
#263 = PLANE ( 'NONE',  #109 ) ;
#264 = DIRECTION ( 'NONE',  ( 0.000000000000000000, 0.000000000000000000, 1.000000000000000000 ) ) ;
#265 = EDGE_LOOP ( 'NONE', ( #251 ) ) ;
#266 = APPROVAL ( #253, 'UNSPECIFIED' ) ;
#267 = CLOSED_SHELL ( 'NONE', ( #132, #23, #340, #351 ) ) ;
#268 = DIRECTION ( 'NONE',  ( 0.000000000000000000, 0.000000000000000000, -1.000000000000000000 ) ) ;
#269 = CALENDAR_DATE ( 2021, 15, 4 ) ;
#270 = ADVANCED_FACE ( 'NONE', ( #12, #120 ), #10, .T. ) ;
#271 = DIRECTION ( 'NONE',  ( 0.000000000000000000, 0.000000000000000000, -1.000000000000000000 ) ) ;
#272 = APPLICATION_PROTOCOL_DEFINITION ( 'international standard', 'config_control_design', 1994, #219 ) ;
#273 = DATE_TIME_ROLE ( 'creation_date' ) ;
#274 = CYLINDRICAL_SURFACE ( 'NONE', #318, 0.05500000000000000028 ) ;
#275 = DIRECTION ( 'NONE',  ( -1.000000000000000000, 0.000000000000000000, 0.000000000000000000 ) ) ;
#276 = AXIS2_PLACEMENT_3D ( 'NONE', #300, #268, #3 ) ;
#277 = VERTEX_POINT ( 'NONE', #365 ) ;
#278 = CARTESIAN_POINT ( 'NONE',  ( 0.000000000000000000, 0.000000000000000000, -0.1499999999999999944 ) ) ;
#279 = APPROVAL_DATE_TIME ( #16, #266 ) ;
#280 = CARTESIAN_POINT ( 'NONE',  ( 0.000000000000000000, 0.000000000000000000, 1.140000000000000346 ) ) ;
#281 = EDGE_CURVE ( 'NONE', #360, #360, #183, .T. ) ;
#282 = EDGE_LOOP ( 'NONE', ( #163 ) ) ;
#283 = DATE_TIME_ROLE ( 'classification_date' ) ;
#284 = FACE_OUTER_BOUND ( 'NONE', #367, .T. ) ;
#285 = EDGE_CURVE ( 'NONE', #335, #335, #249, .T. ) ;
#286 = ORIENTED_EDGE ( 'NONE', *, *, #285, .T. ) ;
#287 = APPROVAL_ROLE ( '' ) ;
#288 = LOCAL_TIME ( 14, 6, 30.00000000000000000, #259 ) ;
#289 = CIRCLE ( 'NONE', #384, 0.02999999999999999889 ) ;
#290 = DIRECTION ( 'NONE',  ( -1.000000000000000000, 0.000000000000000000, -0.000000000000000000 ) ) ;
#291 = DIRECTION ( 'NONE',  ( 1.000000000000000000, 0.000000000000000000, 0.000000000000000000 ) ) ;
#292 = DIRECTION ( 'NONE',  ( 1.000000000000000000, 0.000000000000000000, -0.000000000000000000 ) ) ;
#293 = FACE_BOUND ( 'NONE', #262, .T. ) ;
#294 = AXIS2_PLACEMENT_3D ( 'NONE', #103, #105, #226 ) ;
#295 = PLANE ( 'NONE',  #53 ) ;
#296 = LENGTH_MEASURE_WITH_UNIT ( LENGTH_MEASURE( 0.02539999999999999897 ), #243 );
#297 = AXIS2_PLACEMENT_3D ( 'NONE', #322, #48, #168 ) ;
#298 = DIRECTION ( 'NONE',  ( -0.000000000000000000, -0.000000000000000000, 1.000000000000000000 ) ) ;
#299 = APPLICATION_PROTOCOL_DEFINITION ( 'international standard', 'config_control_design', 1994, #198 ) ;
#300 = CARTESIAN_POINT ( 'NONE',  ( 0.000000000000000000, 0.000000000000000000, -0.1499999999999999944 ) ) ;
#301 = PRODUCT_DEFINITION ( 'UNKNOWN', '', #79, #244 ) ;
#302 = VERTEX_POINT ( 'NONE', #331 ) ;
#303 = DIRECTION ( 'NONE',  ( 0.000000000000000000, 0.000000000000000000, -1.000000000000000000 ) ) ;
#304 =( CONVERSION_BASED_UNIT ( 'INCH', #296 ) LENGTH_UNIT ( ) NAMED_UNIT ( #52 ) );
#305 = APPROVAL_PERSON_ORGANIZATION ( #338, #81, #116 ) ;
#306 = FACE_OUTER_BOUND ( 'NONE', #66, .T. ) ;
#307 = CARTESIAN_POINT ( 'NONE',  ( 0.02999999999999999889, 0.000000000000000000, 1.140000000000000346 ) ) ;
#308 = AXIS2_PLACEMENT_3D ( 'NONE', #245, #149, #65 ) ;
#309 = VERTEX_POINT ( 'NONE', #153 ) ;
#310 = CC_DESIGN_DATE_AND_TIME_ASSIGNMENT ( #189, #283, ( #230 ) ) ;
#311 = EDGE_LOOP ( 'NONE', ( #80 ) ) ;
#312 = CALENDAR_DATE ( 2021, 15, 4 ) ;
#313 = EDGE_LOOP ( 'NONE', ( #222 ) ) ;
#314 = ADVANCED_FACE ( 'NONE', ( #252, #336 ), #126, .T. ) ;
#315 = DIRECTION ( 'NONE',  ( 1.000000000000000000, 0.000000000000000000, -0.000000000000000000 ) ) ;
#316 = EDGE_LOOP ( 'NONE', ( #286 ) ) ;
#317 = DIRECTION ( 'NONE',  ( -1.000000000000000000, 0.000000000000000000, 0.000000000000000000 ) ) ;
#318 = AXIS2_PLACEMENT_3D ( 'NONE', #115, #330, #33 ) ;
#319 = EDGE_CURVE ( 'NONE', #9, #9, #289, .T. ) ;
#320 = EDGE_LOOP ( 'NONE', ( #370 ) ) ;
#321 = SHAPE_DEFINITION_REPRESENTATION ( #260, #11 ) ;
#322 = CARTESIAN_POINT ( 'NONE',  ( 0.000000000000000000, 0.000000000000000000, 1.140000000000000346 ) ) ;
#323 = CC_DESIGN_APPROVAL ( #81, ( #301 ) ) ;
#324 = CLOSED_SHELL ( 'NONE', ( #205, #98, #142, #101 ) ) ;
#325 = CIRCLE ( 'NONE', #145, 0.05500000000000000028 ) ;
#326 = FACE_OUTER_BOUND ( 'NONE', #313, .T. ) ;
#327 = EDGE_LOOP ( 'NONE', ( #20 ) ) ;
#328 = DIRECTION ( 'NONE',  ( 0.000000000000000000, 0.000000000000000000, -1.000000000000000000 ) ) ;
#329 = AXIS2_PLACEMENT_3D ( 'NONE', #278, #37, #368 ) ;
#330 = DIRECTION ( 'NONE',  ( -0.000000000000000000, -0.000000000000000000, -1.000000000000000000 ) ) ;
#331 = CARTESIAN_POINT ( 'NONE',  ( -0.03899999999999999994, 0.000000000000000000, -0.1499999999999999944 ) ) ;
#332 = PLANE ( 'NONE',  #207 ) ;
#333 = CARTESIAN_POINT ( 'NONE',  ( -0.02999999999999999889, 0.000000000000000000, -0.2999999999999999889 ) ) ;
#334 = CARTESIAN_POINT ( 'NONE',  ( 0.000000000000000000, 0.000000000000000000, 0.000000000000000000 ) ) ;
#335 = VERTEX_POINT ( 'NONE', #333 ) ;
#336 = FACE_OUTER_BOUND ( 'NONE', #225, .T. ) ;
#337 = CIRCLE ( 'NONE', #297, 0.009500000000000001499 ) ;
#338 = PERSON_AND_ORGANIZATION ( #232, #246 ) ;
#339 = AXIS2_PLACEMENT_3D ( 'NONE', #130, #218, #275 ) ;
#340 = ADVANCED_FACE ( 'NONE', ( #369, #99 ), #40, .F. ) ;
#341 = CARTESIAN_POINT ( 'NONE',  ( 0.000000000000000000, 0.000000000000000000, 1.166870057685089002 ) ) ;
#342 = EDGE_LOOP ( 'NONE', ( #162 ) ) ;
#343 = PERSON_AND_ORGANIZATION ( #232, #246 ) ;
#344 = CYLINDRICAL_SURFACE ( 'NONE', #95, 0.03899999999999999994 ) ;
#345 = ORIENTED_EDGE ( 'NONE', *, *, #72, .T. ) ;
#346 = EDGE_LOOP ( 'NONE', ( #44 ) ) ;
#347 = EDGE_LOOP ( 'NONE', ( #96 ) ) ;
#348 = CC_DESIGN_PERSON_AND_ORGANIZATION_ASSIGNMENT ( #112, #234, ( #301 ) ) ;
#349 = CIRCLE ( 'NONE', #166, 0.009500000000000001499 ) ;
#350 = FACE_OUTER_BOUND ( 'NONE', #50, .T. ) ;
#351 = ADVANCED_FACE ( 'NONE', ( #43, #220 ), #344, .F. ) ;
#352 = CARTESIAN_POINT ( 'NONE',  ( 0.000000000000000000, 0.000000000000000000, -0.1499999999999999944 ) ) ;
#353 = DIRECTION ( 'NONE',  ( 0.000000000000000000, 0.000000000000000000, -1.000000000000000000 ) ) ;
#354 = EDGE_CURVE ( 'NONE', #121, #121, #49, .T. ) ;
#355 = LOCAL_TIME ( 14, 6, 30.00000000000000000, #157 ) ;
#356 = FACE_OUTER_BOUND ( 'NONE', #346, .T. ) ;
#357 = CYLINDRICAL_SURFACE ( 'NONE', #71, 0.009500000000000001499 ) ;
#358 = COORDINATED_UNIVERSAL_TIME_OFFSET ( 8, 0, .BEHIND. ) ;
#359 = DIRECTION ( 'NONE',  ( -0.000000000000000000, -0.000000000000000000, 1.000000000000000000 ) ) ;
#360 = VERTEX_POINT ( 'NONE', #307 ) ;
#361 = FACE_OUTER_BOUND ( 'NONE', #316, .T. ) ;
#362 = APPROVAL_STATUS ( 'not_yet_approved' ) ;
#363 = VERTEX_POINT ( 'NONE', #179 ) ;
#364 = DIRECTION ( 'NONE',  ( 1.000000000000000000, 0.000000000000000000, 0.000000000000000000 ) ) ;
#365 = CARTESIAN_POINT ( 'NONE',  ( -0.009500000000000001499, 0.000000000000000000, -0.4499999999999999556 ) ) ;
#366 = CIRCLE ( 'NONE', #294, 0.009500000000000001499 ) ;
#367 = EDGE_LOOP ( 'NONE', ( #373 ) ) ;
#368 = DIRECTION ( 'NONE',  ( -1.000000000000000000, 0.000000000000000000, 0.000000000000000000 ) ) ;
#369 = FACE_BOUND ( 'NONE', #124, .T. ) ;
#370 = ORIENTED_EDGE ( 'NONE', *, *, #354, .T. ) ;
#371 = PERSON_AND_ORGANIZATION ( #232, #246 ) ;
#372 = CARTESIAN_POINT ( 'NONE',  ( 0.000000000000000000, 0.000000000000000000, 1.140000000000000346 ) ) ;
#373 = ORIENTED_EDGE ( 'NONE', *, *, #127, .T. ) ;
#374 = EDGE_LOOP ( 'NONE', ( #75 ) ) ;
#375 = CC_DESIGN_PERSON_AND_ORGANIZATION_ASSIGNMENT ( #343, #217, ( #79 ) ) ;
#376 = EDGE_LOOP ( 'NONE', ( #41 ) ) ;
#377 = EDGE_LOOP ( 'NONE', ( #188 ) ) ;
#378 = CARTESIAN_POINT ( 'NONE',  ( 0.000000000000000000, 0.000000000000000000, -0.2999999999999999889 ) ) ;
#379 = EDGE_CURVE ( 'NONE', #114, #114, #325, .T. ) ;
#380 = CARTESIAN_POINT ( 'NONE',  ( 0.000000000000000000, 0.000000000000000000, 1.140000000000000346 ) ) ;
#381 = MANIFOLD_SOLID_BREP ( 'Boss-Extrude2', #248 ) ;
#382 = FACE_BOUND ( 'NONE', #47, .T. ) ;
#383 = CC_DESIGN_SECURITY_CLASSIFICATION ( #230, ( #79 ) ) ;
#384 = AXIS2_PLACEMENT_3D ( 'NONE', #250, #184, #62 ) ;
ENDSEC;
END-ISO-10303-21;
